Cifra Club

Heart Shaped Box

Nirvana

Cifrado: Versão 4 (guitarra y guitarra eléctrica)
tono: D
(NOTA:afinar sexta corda em ré)

RIFF1-
e|------------------------------------------------------|
B|------------------------------------------------------|
G|--------2---------------------------------------------|
D|-----2-----2--------3-------------0----0------0-------|
A|--0--------------3-----3-------0-----0----0-------0---|
D|--------------3-------------0-------------------------|
   
RIFF2
E|--------------------------------------------------|
B|--------------------------------------------------|
G|--------2-----------------------------------------|
D|-----2-----2---------3------------3h4-4-4-4-----0-|
A|--0---------------3-----3-------------------3-3---|
D|---------------3------------0---------------------|

Introdução: RIFF1 + RIFF2 

NOTA:os versos da música seguem esse padrão



REFRÃO guitar

    A5        F5       D5   (repetindo)                     2x                          dist OFF
E|------------------------------------------------|-------------------|-----------------|--------
B|------------------------------------------------|-------------------|-----------------|--------
G|--2-2-2-X---x-x-X-X--0--------------------------|-------------------|-----------------|--2-----
D|--2-2-2-X---3-3-3-3--0-----4-4-4-4-X-X-0--------|-3333333----000000-|---4-4-4-4-----0-|--2-----
A|--x-x-X-X---3-3-3-3--0-----X-X-X-X-3-3-0--------|-3333333----000000-|-----------3-3---|--x-----
D|--x-x-X-X---X-X-3-X--0-----X-X-X-X-X-X-0--------|-3333333----000000-|-----------------|--x-----
        hey,      wait,      i've gotta new...


SOLO:( ACIONA PEDAL CHORUS)                                
                                                                                      MOD. OFF
E|-------------------------------------------|---------------------------------------|---x--|
B|------8#-------6#-------5#(r)--3---1---0---|-----8#------6#------5#(r)--3--1--0----|---x--|
G|-------------------------------------------|-------------------------------------2-|---2--|
D|-7-7------5-5------3-3---------------------|7-7------5-5-----3-3-------------------|---2--|
A|-------------------------------------------|---------------------------------------|---x--|
D|-------------------------------------------|---------------------------------------|---x--|

final

E|-------------------|
B|-------------------|
G|-------------------|
D|--4-4-4-4----------|
A|----------3--3~~---|
D|-------------------|
00:00 / 00:00
Otros videos de esta canción
Repetir
Otros videos de esta canción
Composición de Kurt Cobain
Colaboración y revisión:
  • Sálvio Júnior
  • Sebastião Castro
  • rose almeida
368 exhibiciones
    • ½ Tono
    • A
    • Bb
    • B
    • C
    • Db
    • D
    • Eb
    • E
    • F
    • F#
    • G
    • Ab
  • Agregar a la lista
    00:00 / 00:00
    Capítulos
    • Tocando a música
    • Dicas Iniciais / Equipamentos
    • Acordes da música
    • Tocando a Introdução
    • Introdução - Parte 1 de 2
    • Introdução - Parte 2 de 2
    • Tocando a Primeira Parte
    • Primeira Parte - Riff Principal (variação 1)
    • Primeira Parte - Riff Principal (variação 2)
    • Tocando o Primeiro Refrão
    • Refrão - Guitarra 1
    • Refrão - Guitarra 2
    • Refrão - Passagem
    • Tocando Segunda Parte - Solo
    • Solo - Parte 1 de 3
    • Solo - Parte 2 de 3
    • Solo - Parte 3 de 3
    • Encerramento
    • Ficha Técnica
    OK