Cifra Club

In Bloom

Nirvana

Tab de bajo: Principal
Intro:
G|-------------|--------------|
D|-------------|--------------| 
A|-------------|---------2----|
E|-6-6/10--3---|-3-3-2-3---3-2|  

G|-------------|--------------|
D|-------------|--------------| 
A|-------------|---------3----|
E|1--1-1-3-4---|-4-4-3-4---4-3|

G|-------------|--------------|
D|-------------|--------------| 
A|-------------|---------2----|
E|-6-6/10--3---|-3-3-2-3---3-2|  

G|-------------|
D|-------------|
A|-------------|
E|1--1-1-3-4---|
 

Verso:

G|---------------|--------------|--------------|------------------|
D|---------------|--------------|--------------|------------------| 
A|--1-1-1-1-1----|--------------|-6-6-6-6-6----|------------------|
E|---------------|-2-2-2-2-2----|--------------|-7-7-7-7-5-5-5-5--|

Variação antes do refrão:

G|---------------|--------------|--------------|----------------------|
D|---------------|--------------|--------------|----------------------| 
A|--1-1-1-1-1----|--------------|-6-6-6-6-6----|----------------------|
E|---------------|-2-2-2-2-2----|--------------|-7-7-7-7-10-10-10-10--|


Refrão:  2x

G|----------------------|-----------------------|
D|----------------------|-----------------------|
A|1--1-1-/3-------------|-1--1-1-/3---------1---|
E|-----------3-3-1-3-1-3|-----------3-3-1-3---3-|

G|----------------------|-----------------------|
D|----------------------|-----------------------|
A-1--1-1-/3-------------|-1--1-1-/3---------1---|
E|-----------3-3-1-3-1-3|-----------3-3-1-3-----|

G|---------------------6/8-6----|---------------------6------|
D|---------------------------8--|-------------------------8--|
A-3--3-3-3-3-3-6--6-6-----------|-3--3-3-3-3-3-6--6-6--------|
E|------------------------------|----------------------------|

Repetindo a Intro:

G|-------------|--------------|
D|-------------|--------------| 
A|-------------|---------2----|
E|-6-6/10--3---|-3-3-2-3---3-2|  

G|-------------|--------------|
D|-------------|--------------| 
A|-------------|---------3----|
E|1--1-1-3-4---|-4-4-3-4---4-3|

G|-------------|--------------|
D|-------------|--------------| 
A|-------------|---------2----|
E|-6-6/10--3---|-3-3-2-3---3-2|  

G|-------------|--------------|
D|-------------|--------------| 
A|-------------|---------3----|
E|1--1-1-3-4---|-4-4-3-4---4-3|

Verso:

G|---------------|--------------|--------------|------------------|
D|---------------|--------------|--------------|------------------| 
A|--1-1-1-1-1----|--------------|-6-6-6-6-6----|------------------|
E|---------------|-2-2-2-2-2----|--------------|-7-7-7-7-5-5-5-5--|

Variação antes do refrão:

G|---------------|--------------|--------------|----------------------|
D|---------------|--------------|--------------|----------------------| 
A|--1-1-1-1-1----|--------------|-6-6-6-6-6----|----------------------|
E|---------------|-2-2-2-2-2----|--------------|-7-7-7-7-10-10-10-10--|


Segundo Refrão: 2x

G|----------------------|-----------------------|
D|----------------------|-----------------------|
A-1--1-1-/3-------------|-1--1-1-/3---------1---|
E|-----------3-3-3-2-1--|-----------3-3-1-3---3-|

G|----------------------|-----------------------|
D|----------------------|-----------------------|
A-1--1-1-/3-------------|-1--1-1-/3---------1---|
E|-----------3-3-3-2-1--|-----------3-3-1-3-----|

G|---------------------6/8-6----|---------------------6------|
D|---------------------------8--|-------------------------8--|
A-3--3-3-3-3-3-6--6-6-----------|-3--3-3-3-3-3-6--6-6--------|
E|------------------------------|----------------------------|
Repetindo a Intro: 
G|-------------|--------------|
D|-------------|--------------| 
A|-------------|---------2----|
E|-6-6/10--3---|-3-3-2-3---3-2|  

G|-------------|--------------|
D|-------------|--------------| 
A|-------------|---------3----|
E|1--1-1-3-4---|-4-4-3-4---4-3|

G|-------------|--------------|
D|-------------|--------------| 
A|-------------|---------2----|
E|-6-6/10--3---|-3-3-2-3---3-2| 

G|-------------|--------------|
D|-------------|--------------| 
A|-------------|---------3----|
E|1--1-1-3-4---|-4-4-3-4---4-3|

Base do solo: 


G|---------------|--------------|--------------|------------------|
D|---------------|--------------|--------------|------------------|          3x
A|--1-1-1-1-1----|--------------|-6-6-6-6-6----|------------------|
E|---------------|-2-2-2-2-2----|--------------|-7-7-7-7-5-5-5-5--|

G|---------------|--------------|--------------|----------------------|
D|---------------|--------------|--------------|----------------------| 
A|--1-1-1-1-1----|--------------|-6-6-6-6-6----|----------------------|
E|---------------|-2-2-2-2-2----|--------------|-7-7-7-7-10-10-10-10--|

Terceiro Refrão:  2x

G|----------------------|-----------------------|
D|----------------------|-----------------------|
A-1--1-1-/3-------------|-1--1-1-/3---------1---|
E|-----------3-3-1-3-1-3|-----------3-3-1-3---3-|

G|----------------------|-----------------------|
D|----------------------|-----------------------|
A-1--1-1-/3-------------|-1--1-1-/3---------1---|
E|-----------3-3-1-3-1-3|-----------3-3-1-3-----|

G|---------------------6/8-6----|---------------------6------|    4x
D|---------------------------8--|-------------------------8--|
A-3--3-3-3-3-3-6--6-6-----------|-3--3-3-3-3-3-6--6-6--------|
E|------------------------------|----------------------------|

Final:

G|-------------|--------------|
D|-------------|--------------| 
A|-------------|---------2----|
E|-6-6/10--3---|-3-3-2-3---3-2|  

G|-------------|--------------|
D|-------------|--------------| 
A|-------------|---------3----|
E|1--1-1-3-4---|-4-4-3-4---4-3|

G|-------------|--------------|
D|-------------|--------------| 
A|-------------|---------2----|
E|-6-6/10--3---|-3-3-2-3---3-2| 

G|-------------|---------------|
D|-------------|---------------| 
A|-------------|---------3-----|
E|1--1-1-3-4---|-4-4-3-4---4-3/6|
00:00 / 00:00
Otros videos de esta canción
Repetir
Otros videos de esta canción
Composición de Kurt Cobain
Colaboración y revisión:
  • Lucas Oliveira
  • Junior Toledo
1.536 exhibiciones
00:00 / 00:00
OK