Enviar cifraEntrar

Jesus Doesn't Want Me For A Sunbeam

Nirvana

Acordes: Principal
reproducciones 8.879
Tono: C#
Intro: E  D  A  Asus4 A (2X)
a parte do acordeom

E|-----------------------------------------|
B|-----------------------------------------|
G|-8~-8~-12-10-8-6~-6~-8-6---------6-5-----|
D|-------------------------8-6~-6~-----6-6-|
A|-----------------------------------------|
E|-----------------------------------------|(2x)


Eb         Db              Ab        Absus4 A
Jesus doesn't want me for a sunbeam
   Eb           Db                Ab  Asus4 A
'Cause sunbeams are never made like me
Eb                   Db                  Ab
Don't expect me to cry, for all the reasons
     Absus4 A
you had to die
Ebm           Db                 Ab   Absus4 A
Don't ever ask your love of me

Eb                 Db
Don't expect me to cry
Eb                 Db
Don't expect me to lie
Eb                 Db          Ab     Absus4 A
Don't expect me to die for thee

Eb         Db              Ab      Absus4 A
Jesus doesn't want me for a sunbeam
      Eb5          Db                  Ab    Absus4 A
'Cause sunbeams are never made like me
Eb                   Db                  Ab
Don't expect me to cry, for all the reasons
     Absus4 A
you had to die
Eb           Db               A   Asus4 A
Don't ever ask your love of me

Eb                 Db
Don't expect me to cry
Eb                 Db
Don't expect me to lie
Eb                 Db          Ab     Absus4 A
Don't expect me to die for thee

E  D  A  Asus4 A (2X)
  Solo


E|------------------------------------------------------|
B|------------------------------------------------------|
G|8--8-10-86-6--6-8-6--------6--------------------------|
D|---------------------6--6-6--6------------------------|  2 vezes
A|------------------------------------------------------|
E|------------------------------------------------------|


Eb                 Db
Don't expect me to cry
Eb              Db
Don't expect me to lie
Eb                 Db         Ab     Absus4 A
Don't expect me to die for thee

Eb         Db                 Ab      Absus4 A
Jesus doesn't want me for a sunbeam
      Eb5          Db                  Ab    Absus4 A
'Cause sunbeams are never made like me
Eb                  Db                  Ab
Don't expect me to cry, for all the reasons
     Absus4 A
you had to die
Eb           Db                 Ab   Absus4 A
Don't ever ask your love of me

Eb                 Db
Don't expect me to cry
Eb                 Db
Don't expect me to lie
Eb                 Db         Ab     Absus4 A
Don't expect me to die for thee

Eb  Db  Ab  Absus4  A (2X)
o final do acordeom

E|-----------------------------------------|
B|-----------------------------------------|
G|-8~-8~-12-10-8-6~-6~-8-8---------6-6-----|
D|-------------------------8-6~-6~-----6-6-|
A|-----------------------------------------|
E|-----------------------------------------|


E|---------------------------------------------|
B|---------------------------------------------|
G|-8~-8~-12-10-8-6~-6~-8-10-12-13-13-15-13--13-|
D|------------------------------------------13-|
A|---------------------------------------------|
E|---------------------------------------------|
  • 1
  • 2
  • 3
  • 4
  • 5
  • 6
  • 7
  • 8
  • 9
  • 10
  • 11
  • 12
    Acordes para:
      Composición: Eugene Kelly / Frances McKeeColaboración y revision:
      • Emanuel
      • Victor__
      • NIRVANA

      0 comentarios

        mostrar mas comentarios

        ¿Conseguiste tocar?

        75tocaron0aún no

        ¡Grave un vídeo tocando Jesus Doesn't Want Me For A Sunbeam y envie para nosotros!

        00:00 / 00:00
        outros vídeos desta música
        repetirqualidadeautomática
        • automática
        Outro vídeos desta música
          00:00 / 00:00
          automática
          • automática
          2 versiones de Contrabajoreproduccionescontribuciones
          1 versión de Bateríareproduccionescontribuciones
          1 versión de Armónicareproduccionescontribuciones
          cerrarplay/pause subir/bajar velocidad
            acordes
            cerrar
            OK
            Feedback