Cifra Club

Jesus Doesn't Want Me For A Sunbeam

Nirvana

Chords: Principal (acoustic and electric guitars)
tone: Eb (chord shape for key of E) Tuning: Eb Ab Db Gb Bb Eb
[Intro] E5  D5  A5  D5  A5
        E5  D5  A5  D5  A5

[Riff1 ]

   E5             D5             A5         D5  A5
E|------------------------------------------------------------|
B|----------------3--3-3--3-3-0-------------3-3---------------|
G|----------------2--2-2--2-2-0--2--2-2-2-2-2-2-2--2-2-2-2-0--|
D|-2--2-2--2-2-0--0--0-0--0-0-0--2--2-2-2-2-----2--2-2-2-2-0--|
A|-2--2-2--2-2-0-----------------0--0-0-0-0-----0--0-0-0-0-0--|
E|-0--0-0--0-0-0----------------------------------------------|

 E5           D5          A5    D5  A5
Jesus doesn't want me for a sunbeam
 E5           D5          A5    D5  A5
Sunbeams are never made like me
 E5           D5          A5    D5  A5             
Don't expect me to cry, for all the reasons you had to die    
 E5           D5          A5    D5  A5
Don't ever ask your love of me

[Riff 2]

   E5             D5             
E|-------------------------------|
B|----------------3--3-3--3-3-0--|
G|----------------2--2-2--2-2-0--|
D|-2--2-2--2-2-0--0--0-0--0-0-0--| (3x)
A|-2--2-2--2-2-0-----------------|
E|-0--0-0--0-0-0-----------------|
   
 E5                D5
Don't expect me to cry
 E5                D5
Don't expect me to lie

[Riff 3]

   E5             D5             A5           
E|-------------------------------------------------------------|
B|----------------3--3-3--3-3-0--------------------------------|
G|----------------2--2-2--2-2-0--2--2-2-2-2-2-2-2-2-2-2-2-2-0--|
D|-2--2-2--2-2-0--0--0-0--0-0-0--2--2-2-2-2-2-2-2-2-2-2-2-2-0--|
A|-2--2-2--2-2-0-----------------0--0-0-0-0-0-0-0-0-0-0-0-0-0--|
E|-0--0-0--0-0-0-----------------------------------------------|

 E5                D5      A5
Don't expect me to die for me

 E5           D5          A5    D5 A5
Jesus doesn't want me for a sunbeam
 E5           D5          A5    D5 A5
Sunbeams are never made like me
 E5           D5          A5    D5 A5
Don't expect me to cry, for all the reasons you had to die
 E5           D5          A5    D5 A5
Don't ever ask your love of me

  E5               D5
Don't expect me to cry
 E5                D5
Don't expect me to lie
 E5                D5      A5
Don't expect me to die for me

( E5  D5  A5  D5  A5 )
( E5  D5  A5  D5  A5 )

E5                 D5
Don't expect me to cry
E5                 D5
Don't expect me to lie
E5                 D5      A5
Don't expect me to die for me

E5            D5          A5    D5 A5
Jesus doesn't want me for a sunbeam
 E5           D5          A5    D5 A5
Sunbeams are never made like me
 E5           D5          A5    D5 A5
Don't expect me to cry, for all the reasons you had to die
 E5           D5          A5    D5 A5
Don't ever ask your love of me

E5                 D5
Don't expect me to cry
E5                 D5
Don't expect me to lie
E5                 D5  
Don't expect me to die
E5                 D5
Don't expect me to cry
E5                 D5
Don't expect me to lie
E5                 D5      A5    
Don't expect me to die for me 

[Final] E5  D5  A5  D5  A5    
        E5  D5  A5  D5  A5
00:00 / 00:00
Other videos of this song
Repeat
Other videos of this song
26.047 views
  • Simplify chords
    • ½ Tone
    • A
    • Bb
    • B
    • C
    • Db
    • D
    • Eb
    • E
    • F
    • F#
    • G
    • Ab
  • Add to list

Afinação da cifra

Afinador online

    00:00 / 00:00
    OK