Cifra Club

Jesus Doesn't Want Me For A Sunbeam

Nirvana

Cifrado: Principal (guitarra y guitarra eléctrica)
tono: E
[Intro] E  D  A  A4  A
        E  D  A  A4  A

E|-----------------------------------------|
B|-----------------------------------------|
G|-8~-8~-12-10-8-6~-6~-8-6---------6-5-----| (2x)
D|-------------------------8-6~-6~-----6-6-|
A|-----------------------------------------|
E|-----------------------------------------|

 E            D            A     A4  A
Jesus doesn't want me for a sunbeam
        E           D              A A4  A
'Cause sunbeams are never made like me
 E                  D              A
Don't expect me to cry, for all the reasons
     A4 A
you had to die
 E       D                A  A4  A
Don't ever ask your love of me

 E                  D
Don't expect me to cry
 E                 D
Don't expect me to lie
 E                 D       A  A4  A
Don't expect me to die for thee

 E            D            A     A4 A
Jesus doesn't want me for a sunbeam
        E          D              A  A4  A
'Cause sunbeams are never made like me
 E                  D              A
Don't expect me to cry, for all the reasons
     A4 A
you had to die
 E        D                A  A4  A
Don't ever ask your love of me

 E                  D
Don't expect me to cry
 E                 D
Don't expect me to lie
 E                 D       G#  A4  A
Don't expect me to die for thee

[Solo] E  D  A  A4  A
       E  D  A  A4  A

E|------------------------------------------------------|
B|------------------------------------------------------|
G|8--8-10-86-6--6-8-6--------6--------------------------|  (2x)
D|---------------------6--6-6--6------------------------|
A|------------------------------------------------------|
E|------------------------------------------------------|

 E                  D
Don't expect me to cry
 E                 D
Don't expect me to lie
 E                 D       A  A4  A
Don't expect me to die for thee

 E            D            A     A4  A
Jesus doesn't want me for a sunbeam
        E          D              A  A4  A
'Cause sunbeams are never made like me
 E                  D              A
Don't expect me to cry, for all the reasons
     A4 A
you had to die
 E        D                A  A4  A
Don't ever ask your love of me

 E                  D
Don't expect me to cry
 E                 D
Don't expect me to lie
 E                 D       A  A4  A
Don't expect me to die for thee

[Final] E  D  A  A4  A
        E  D  A  A4  A

E|-----------------------------------------|
B|-----------------------------------------|
G|-8~-8~-12-10-8-6~-6~-8-8---------6-6-----|
D|-------------------------8-6~-6~-----6-6-|
A|-----------------------------------------|
E|-----------------------------------------|

E|---------------------------------------------|
B|---------------------------------------------|
G|-8~-8~-12-10-8-6~-6~-8-10-12-13-13-15-13--13-|
D|------------------------------------------13-|
A|---------------------------------------------|
E|---------------------------------------------|
00:00 / 00:00
Otros videos de esta canción
Repetir
Otros videos de esta canción
Composición de Eugene Kelly / Frances McKee
Colaboración y revisión:
18.617 vistas
  • Simplificar cifrado
    • ½ Tono
    • A
    • Bb
    • B
    • C
    • Db
    • D
    • Eb
    • E
    • F
    • F#
    • G
    • Ab
  • Agregar a la lista

    0 comentarios

    Ver todos los comentarios

    ¿Lograste tocar?

    96 Tocaron 3 Aún no

    ¡Graba un video tocando Jesus Doesn't Want Me For A Sunbeam y envíanoslo!

    00:00 / 00:00
    OK