Cifra Club

Marigold

Nirvana

Tab de bajo: Principal
Baixo afinado em E (E A D G)

 intro/ versos/ interlúdio        parte dos versos logo antes do refrão
|---------------|---------------||---------------|----------------|
|---------------|---------------||---------------|----------------|
|-7-7--4--4-4-3-|-2-2--3--2-----||-7-7--4--4-4-3-|-2-2--3--3-3s5--|
|---------------|-----------3-0-||---------------|----------------|

 refrão
|-----------------|-----------------|-----------------|-----------------|
|-----------------|-----------------|-----------------|-----------------|
|-----------------|-----------------|-7-7-7-7-7-7-7-7-|-4-4-4-4-4-4-4-4-|
|-3-3-3-3-3-3-3-3-|-5-5-5-5-5-5-5-5-|-----------------|-----------------|

 final do refrão (of a marigo-o-o-l-d)
|-----------------|--------------------|
|-----------------|--------------------|
|-----------------|--------------------|
|-3-3-3-3-3-3-3-3-|-3-3-3-3-3-3-3-3----|

Tab por césar miguel

dúvidas e correções
nirvana-ff@bol.com.br

_______________________________________________________
Contribuição: césar miguel(nirvana-ff@bol.com.br)
00:00 / 00:00
Otros videos de esta canción
Repetir
Otros videos de esta canción
Composición de Dave Grohl
83 exhibiciones
00:00 / 00:00
OK