Cifra Club

Milk It

Nirvana

Bass tab: Principal
Drop D tuning (D A D G)

Intro/ Chorus -Repeat how many times you're supposed to-
G:---------------------------------------------
D:---------------------------------------------
A:-0-0---------------------------0-0-----------
D:------1-1-4-1/4-4-4-5-5-1-1--------1-1-4-4-4---

Verse/After chorus (look on the......|  protector of the.....)
G:-----------------------------
D:-----------------------------
A:-0-0-------------------------
D:-----1-1-4-1/4-4-4-5-5-1-1---
Continue to play this over and over again,
it's hard to get the timing, but is exactly
like the chorus except there aren't any pauses.



_______________________________________________________
Contribuição: Felipe Furlan da Rosa(fynonlipy@mtv.com.br)
00:00 / 00:00
Other videos of this song
Repeat
Other videos of this song
Composed by Kurt Cobain
63 views
00:00 / 00:00
OK