Cifra Club

Mr. Moustache

Nirvana

Tab de bajo: Principal
  standard tuning (E A D G)

Verse/ intro /end
G:------------------------------------
D:------------------------------------
A:---2--------------1-----------------
E:-3---3-2-1-0-1-2-3--3-2-1-0-1-2-----

Easy on a...........
G:--------------
D:---------------
A:-2--3---------
E:-------3-3-3-3

Chorus
G:-------------------------------
D:-------------------------------
A:-----------3-3-3-3-6-6-6-6-----
E:-5-5--5-5----------------------



_______________________________________________________
Contribuição: Felipe Furlan da Rosa(fynonlipy@mtv.com.br)
00:00 / 00:00
Otros videos de esta canción
Repetir
Otros videos de esta canción
Composición de Kurt Cobain
116 exhibiciones
00:00 / 00:00
OK