Cifra Club

Negative Creep

Nirvana

Cifrado: Versão 2 (guitarra y guitarra eléctrica)
tono: C
Now play:

E|---------------------------------------------------------------------------|
B|---------------------------------------------------------------------------|
G|---------------------------------------------------------------------------|
D|---------------------------------------------------------------------------|
A|---------------------------------------------------------------------------|
D|-0-0-12/1-0-0-0-12/1-0-0-1/12-0-0-0-12/-0-0-1/12---------------------------|

QUANDO KURT COMECA A CANTAR FICA ASSIM...acompanhe a letra e a música!! 
     
A|--------------------------------------------------------------------14-----|
E|0-0-12/1-0-0-0-12/1-0-0-1/12-0-0-0-12/1-0-0-1/12-0-0-0-12/1-0-0-1/12--------|
   



Negative Creep

This is out of our ronge 3x
and it´s crude
This is getting to be 3x
like drone
I´m a negative creep 3x
and I´m stoned!
I´m a negative creep 3x
And I´m...stoned

Refrao

A|5-5-5-3-3-3---------------------------------------------------------------|
E|-----------2-2-2/5-5-5--------------------------------------------------|           

Daddy´s little girl ain´t a girl no more

This is out of our ronge 3x
and it´s crude
This is getting to be 3x
like drone
I´m a negative creep 3x
and I´m stoned!
I´m a negative creep 3x
And I´m...stoned!

DEPOIS É SÓ SEGUIR A ORDEM E O RITMO DA MÚSICA!!!VLW GERAL DO GRUNGE!!
00:00 / 00:00
Otros videos de esta canción
Repetir
Otros videos de esta canción
Composición de Kurt Cobain
Colaboración y revisión:
  • yan costa
74 exhibiciones
    • ½ Tono
    • A
    • Bb
    • B
    • C
    • Db
    • D
    • Eb
    • E
    • F
    • F#
    • G
    • Ab
  • Agregar a la lista
    00:00 / 00:00
    OK