Cifra Club

On A Plain

Nirvana

Cifrado: Versão 3 (guitarra y guitarra eléctrica)
Acompaña nuestras novedades de Cifra Club en español.
¡Sigue nuestro perfil en Instagram!
tono: D
Tunning: D A D G B e

Verso
I'll start this off without any words.....
e|----------------------------------|
B|----------------------------------|
G|--7-7-----------------------------|
D|--7-7--0-5-5--0-3-3--2-3-2-0------|
A|--5-5--0-5-5--0-3-3--2-3-2-0------|
D|-------0-5-5--0-3-3--2-3-2-0------|

Ponte I
Love myself better than you.
e|----------------------------------|
B|----------------------------------|
G|--7-7-----5-5-----4-4-----2-2-2---|
D|--7-7-----5-5-----4-4-----2-2-2---|
A|--5-5--0--3-3--0--2-2--0--0-0-0---|
D|----------------------------------|

Refrão
I'm on a plain..
e|----------------------------------|
B|----------------------------------|
G|--7-7----7-7----10-10-10-10-10----|
D|--7-7----7-7----10-10-10-10-10----|
A|--5-5--0-5-5--0-8--8--8--8--8-----|
D|-------0-5-5--0-8--8--8--8--8-----|


Ponte II
Somewhere I have heard this before...
e|-------------------------------|
B|-------------------------------|
G|----------------2-2-2----------|
D|--3-3-3--2-2-2--2-2-2--5-5-5---|
A|--3-3-3--2-2-2--0-0-0--5-5-5---|
D|--3-3-3--2-2-2---------5-5-5---|
Composición de Dave Grohl / Krist Novoselic / Kurt Cobain
Colaboración y revisión:
  • Raphael Figueiredo
176 vistas
    • ½ Tono
    • A
    • Bb
    • B
    • C
    • Db
    • D
    • Eb
    • E
    • F
    • F#
    • G
    • Ab
  • Agregar a la lista

    0 comentarios

    Ver todos los comentarios

    ¿Lograste tocar?

    1 Tocaron 0 Aún no

    ¡Graba un video tocando On A Plain y envíanoslo!

    00:00 / 00:00
    Outros vídeos desta música
    Repetir Calidad Automático
    Outros vídeos desta música
    00:00 / 00:00
    Automático
    OK