Cifra Club

Opinion

Nirvana

Tab de bajo: Principal
Acompaña nuestras novedades de Cifra Club en español.
¡Sigue nuestro perfil en Instagram!
Opinion
    -------

There is no real bassline in this song, but if you add one,
it goes like this:

G--------------------------------|
D--------------------------------|
A-1--1-1---------4--4-4----------|
E--------2-2-2-2--------1-1-1-1--|

17) Return Of The Rat
    -----------------

Verse:

   G#5     B5       F#5
G------------------------------------|
D------------------------------------|
A-----------2-2-2-2------------------|
E---4-4-4-4---------2-2-2-2-2-2-2-2--|

Chorus:

    Bb5   B5                G#5
G-----------------------------------|
D-----------------------------------|
A---1-1-1-2-1-1-1-2-1-1-1-2---------|  
E---------------------------4-4-4-4-|

End Of Chorus:


    F#5     B5      C#5
G-----------------------------------|
D-----------------------------------|
A-----------2-2-2-2-4-4-4-4-4-4-4-4-|
E---2-2-2-2-------------------------|


_______________________________________________________
Contribuição: Raquel Vieira(ravi_9191@hotmail.com)
Composición de Kurt Cobain
73 vistas

0 comentarios

Ver todos los comentarios

¿Lograste tocar?

0 Tocaron 0 Aún no

¡Graba un video tocando Opinion y envíanoslo!

00:00 / 00:00
Outros vídeos desta música
Repetir Calidad Automático
Outros vídeos desta música
00:00 / 00:00
Automático
OK