Cifra Club

Other Improv

Nirvana

Cifrado: Principal (guitarra y guitarra eléctrica)
tono: C
Afinação: D A D G B E

Riff1
E|--------------------------------------------------------|
B|--------------------------------------------------------|
G|-6-----------6------------------------------------------|
D|-6-1-4-4-3-1-6-1-4-4-3-1--------------------------------|
A|-4-1-4-4-3-1-4-1-4-4-3-1--------------------------------|
E|---1-4-4-3-1---1-4-4-3-1--------------------------------|

Riff2
E|--------------------------------------------------------|
B|--------------------------------------------------------|
G|-6-6-6-6-6-6-6-6-0-4-4-4-4-4-4-4-4-0-2-2-2-2-2-2-2-2-0--|
D|-6-6-6-6-6-6-6-6-0-4-4-4-4-4-4-4-4-0-2-2-2-2-2-2-2-2-0--|
A|-4-4-4-4-4-4-4-4-0-2-2-2-2-2-2-2-2-0-0-0-0-0-0-0-0-0-0--|
E|--------------------------------------------------------|
00:00 / 00:00
Otros videos de esta canción
Repetir
Otros videos de esta canción
Composición de Kurt Cobain
Colaboración y revisión:
  • Lucas Araújo
120 exhibiciones
    • ½ Tono
    • A
    • Bb
    • B
    • C
    • Db
    • D
    • Eb
    • E
    • F
    • F#
    • G
    • Ab
  • Agregar a la lista
    00:00 / 00:00
    OK