Cifra Club

Polly

Nirvana

Chords: Principal (acoustic and electric guitars)
tone: G
[Intro] E5  G5  D5  C5
        E5  G5  D5  C5

[tab - riff 1]

   E5     G5         D5       C5
E|------------------------------------------|
B|-------------------3-3--x-----------------|
G|-------------------2-2--x---5-5-5-0-------|
D|-2--x-0-5-5--x-0---0-0--x---5-5-5-0-------| (7x)
A|-2--x-0-5-5--x-0------------3-3-3-0-------|
E|-0--x-0-3-3--x-0--------------------------|

[primeira parte] 

E5  G5             D5    C5 
   Polly wants a cracker
E5     G5               D5       C5  
   I think I should get off her first
E5     G5                  D5   C5  
   I think she wants some water
E5  G5              D5  C5               
   To put out the blow torch

[refrão] 

[tab - riff 2]

   D5   C5       G        Bb5
E|------------------------------------------|
B|-3-x--------------------------------------|
G|-2-x--5-5-5-0-----------3-3-3-0-----------|
D|-0-x--5-5-5-0--0-0-0-x--3-3-3-0-----------|
A|------3-3-3-0--x-x-x-x--1-1-1-0-----------|
E|---------------3-3-3-x--------------------|

   D5     C5       G        Bb5
E|------------------------------------------|
B|-3-3-x------------------------------------|
G|-2-2-x--5-5-5-0-----------3-3-3-0---------|
D|-0-0-x--5-5-5-0--0-0-0-x--3-3-3-0---------| (8x)
A|--------3-3-3-0--x-x-x-x--1-1-1-0---------|
E|-----------------3-3-3-x------------------|

D5 C5             G  Bb5
      It isn't me,       have a seed
D5 C5             G  Bb5 
      Let me clip        dirty wings
D5 C5                G   Bb5
      Let me take a ride,    cut yourself
D5 C5            G   Bb5  
      Want some help,    please myself
D5 C5              G  Bb5
      Got some rope,      haven't told
D5 C5            G  Bb5  
      Promise you,     haven't true
D5 C5                G   Bb5
      Let me take a ride,    cut yourself
D5 C5            G   Bb5  
      Want some help,    please myself

( E5  G5  D5  C5 )
( E5  G5  D5  C5 )

[segunda parte] 

E5  G5             D5    C5
   Polly wants a cracker
E5  G5              D5        C5  
   Maybe she would like some food
E5     G5            D5     C5
   She asks me to untie her
E5     G5            D5         C5  
   A chase would be nice for a few

[refrão] 

D5 C5             G  Bb5
      It isn't me,       have a seed
D5 C5             G  Bb5 
      Let me clip        dirty wings
D5 C5                G   Bb5
      Let me take a ride,    cut yourself
D5 C5            G   Bb5  
      Want some help,    please myself
D5 C5              G  Bb5
      Got some rope,      haven't told
D5 C5            G  Bb5  
      Promise you,     haven't true
D5 C5                G   Bb5
      Let me take a ride,    cut yourself
D5 C5            G   Bb5  
      Want some help,    please myself

( E5 )

Polly said

[terceira parte] 

E5  G5             D5        C5   
   Polly says her back hurts
E5       G5           D5   C5
   And she's just as bored as me
E5   G5          D5       C5
   She caught me off my guard
E5   G5           D5     C5
   Amazes me the will of instinct

[refrão] 

D5 C5             G  Bb5
      It isn't me,       have a seed
D5 C5             G  Bb5 
      Let me clip        dirty wings
D5 C5                G5  Bb5
      Let me take a ride,    cut yourself
D5 C5            G   Bb5  
      Want some help,    please myself
D5 C5              G  Bb5
      Got some rope,      haven't told
D5 C5            G  Bb5  
      Promise you,     haven't true
D5 C5                G   Bb5
      Let me take a ride,    cut yourself
D5 C5            G   Bb5  
      Want some help,    please myself

[Final] E5
00:00 / 00:00
Other videos of this song
Repeat
Other videos of this song
Composed by Kurt Cobain
63.989 views
    • ½ Tone
    • A
    • Bb
    • B
    • C
    • Db
    • D
    • Eb
    • E
    • F
    • F#
    • G
    • Ab
  • Add to list
    00:00 / 00:00
    OK