Notificações Amigos pendentes

      Nirvana

      Sappy

      20 reproducciones
      Tono: D
      Introdução: (sem distorção)
      
         D      Bb  G    A      Bb  C 
      e|-55555--11--333--55555--11--333-|
      B|-55555--11--333--55555--11--333-|
      G|-77777--33--444--44444--33--555-|
      D|-77777--33--555--77777--33--555-|
      A|-55555--11--555--77777--11--333-|
      E|-55555--11--333--55555--11--333-|
      
      D            Bb   G      A          Bb       
       And if you save yourself you will make him happy
      
      D               Bb    G A             Bb          
       He'll keep you in a jar and you'll think you're happy 
      
      D                 Bb       G   A             Bb          
       He'll give you breathing holes and you'll think you're happy
      
      D             Bb       G  A             Bb          
       He'll cover you with dust and you'll think you're happy 
      
      Refrão: (com distorção)
      
         D       Bb     G      Bb     G      Bb     G      Bb      A 
      e|-----------------------------------------------------------0-|
      B|-----------------------------------------------------------0-|
      G|-77777---33333---------33333---------33333---------333333--2-|
      D|-77777---33333--55555--33333--55555--33333--55555--333333--2-|
      A|-55555---11111--55555--11111--55555--11111--55555--111111--0-|
      E|----------------33333---------33333---------33333----------0-|
      
      D       Bb            G           Bb            G          Bb              G           Bb A 
      Nooow... you're in a laundry room? you're in a laundry room the clue that came to you, oh 
      
      Verso: (sem distorção)
      
         D      Bb  G    A      Bb  C 
      e|-55555--11--333--55555--11--333-|
      B|-55555--11--333--55555--11--333-|
      G|-77777--33--444--44444--33--555-|
      D|-77777--33--555--77777--33--555-|
      A|-55555--11--555--77777--11--333-|
      E|-55555--11--333--55555--11--333-|
      
      D            Bb   G      A          Bb       
       And if you save yourself you will make him happy
       
      D               Bb    G A             Bb          
       He'll keep you in a jar and you'll think you're happy 
      
      D                 Bb       G   A             Bb          
       He'll give you breathing holes and you'll think you're happy
      
      D             Bb       G  A             Bb          
       He'll cover you with dust and you'll think you're happy 
      
      Refrão: (com distorção)
      
         D       Bb     G      Bb     G      Bb     G      Bb      A 
      e|-----------------------------------------------------------0-|
      B|-----------------------------------------------------------0-|
      G|-77777---33333---------33333---------33333---------333333--2-|
      D|-77777---33333--55555--33333--55555--33333--55555--333333--2-|
      A|-55555---11111--55555--11111--55555--11111--55555--111111--0-|
      E|----------------33333---------33333---------33333----------0-|
      
      D       Bb            G           Bb            G          Bb              G           Bb A 
      Nooow... you're in a laundry room? you're in a laundry room the clue that came to you, oh 
      
      Solo: (com distorção)
      
      e|--------------------|-------------------------|----------------------|
      B|--------------------|-------------------------|----------------------|
      G|--------------------|-------------------------|----------------------|
      D|-----------------10-|-10-12-12-12/14-14-14-14-|-14b15--14---14-12-14-|
      A|-----8-10-12--12----|-------------------------|----------------------|
      E|-8-10---------------|-------------------------|----------------------|
      
      
      e|------------------------|---------------|-------------------|-----------------|
      B|------------------------|---------------|-------------------|-----------------|
      G|------------------------|---------------|-------------------|-----------------|
      D|-14b15--15-15-15-r14-12-|---------------|-------------------|-----------------|
      A|------------------------|---------------|-------------------|-----------------|
      E|------------------------|-7-8-8-7-7-5-3-|-3-1-3-3b5-3-1-1-1-|-1-3-3-3-5-5-5-7-|
      
      
      e|----------------------|--------------------------|-----------------------|
      B|----------------------|--------------------------|-----------------------|
      G|----------------------|--------------------------|-----------------------|
      D|----------------------|--------------------------|----------15--17-17-15-|
      A|----------------------|-------------12--14-14-15-|-15-17-17--------------|
      E|-7-8-8-10-10-12-12-12-|-12b13-12-10--------------|-----------------------|
      
      
      e|-----------------------------|--------------------------|--------------------|
      B|-----------------------------|--------------------------|--------------------|
      G|-----------------------------|--------------------------|--------------------|
      D|-17b19--17-17-15--12---12-14-|-14b15==15r14-14-12-12-12-|-12-12-12--12-12-14-|
      A|-----------------------------|--------------------------|--------------------|
      E|-----------------------------|--------------------------|--------------------|
      
      
      e|-------------------------------|-------------------------|--------------|
      B|-------------------------------|-------------------------|--------------|
      G|-------------------------------|-------------------------|--------------|
      D|-14-15-15-14-14h15p14-12-12-12-|-12-14-14-14-12-12-12-10-|-10-9-9-7-7-5-|
      A|-------------------------------|-------------------------|--------------|
      E|-------------------------------|-------------------------|--------------|
      
      
      Refrão: (com distorção)
      
         D       Bb     G      Bb     G      Bb     G      Bb      A 
      e|-----------------------------------------------------------0-|
      B|-----------------------------------------------------------0-|
      G|-77777---33333---------33333---------33333---------333333--2-|
      D|-77777---33333--55555--33333--55555--33333--55555--333333--2-|
      A|-55555---11111--55555--11111--55555--11111--55555--111111--0-|
      E|----------------33333---------33333---------33333----------0-|
      
      D       Bb            G           Bb            G          Bb              G           Bb A 
      Nooow... you're in a laundry room? you're in a laundry room the clue that came to you, oh 
      
      Verso: (sem distorção)
      
         D      Bb  G    A      Bb  C 
      e|-55555--11--333--55555--11--333-|
      B|-55555--11--333--55555--11--333-|
      G|-77777--33--444--44444--33--555-|
      D|-77777--33--555--77777--33--555-|
      A|-55555--11--555--77777--11--333-|
      E|-55555--11--333--55555--11--333-|
      
      D            Bb   G      A          Bb       
       And if you fool yourself you will make him happy 
      
      D               Bb    G A             Bb          
       He'll keep you in a jar and you'll think you're happy 
      
      D                 Bb       G   A             Bb          
       He'll give you breathing holes and you'll think you're happy
      
      D             Bb       G  A             Bb          
       He'll cover you with dust and you'll think you're happy 
      
      Refrão: (com distorção)
      
         D       Bb     G      Bb     G      Bb     G      Bb      A 
      e|-----------------------------------------------------------0-|
      B|-----------------------------------------------------------0-|
      G|-77777---33333---------33333---------33333---------333333--2-|
      D|-77777---33333--55555--33333--55555--33333--55555--333333--2-|
      A|-55555---11111--55555--11111--55555--11111--55555--111111--0-|
      E|----------------33333---------33333---------33333----------0-|
      
      D       Bb            G           Bb            G          Bb              G           Bb A 
      Nooow... you're in a laundry room? you're in a laundry room the clue that came to you, oh
        Composición: Kurt CobainColaboración y revision:
        • grunge in the heavem
        • Hardcore_boy

        Comentarios 1

        140 .
        140 cancelar

        ¿conseguiste tocar?

        covers

        ¡Grave un vídeo tocando Sappy y envie para nosotros!

        Ex.: http://www.youtube.com/watch?v=0IvSvIwGdwk
        ver cover de otras canciones »
        0:00 / 0:00

        Capitulos

          2 versões de contrabajo reproducciones contribuición y correción
          2 versões de batería reproducciones contribuición y correción
          2 versões de Guitar Proformatodownloadscontribuición
          play/pausefechar subir/bajar velocidad
          6ª cuerda E5ª cuerda A4ª cuerda D3ª cuerda G2ª cuerda B1ª cuerda E
            acordes
            publicidad
            cerrar
            ok