Cifra Club

Sappy

Nirvana

Bass tab: Principal
Sappy (Verse Chorus Verse)
    -----

G---------------------------------------------------------|
D---------------------------------------------------------|
A-5-5-5-5-------------------------------------------------|  (3x)
E----------6-6--6-3-3-3--5-5-5-5-5--6-6-6--1-1------------|

G---------------------------------------------------------|
D---------------------------------------------------------|
A-5-5-5-5---------------------------------------5-5-5-5-5-|  (1x)
E----------6-6--6-3-3-3--5-5-5-5-5--6-6-6--3-3------------|

Chorus:

G----------------------------|           ------------------|
D----------------------------|           ------------------|
A----------------------------|   (3x)    ------------------|  (1x)
E-6--6-6-6-6--3--3-3-3-3-----|           -6--6-6-6-6--5----|



_______________________________________________________
Contribuição: Raquel Vieira(ravi_9191@hotmail.com)
00:00 / 00:00
Other videos of this song
Repeat
Other videos of this song
Composed by Kurt Cobain
174 views
00:00 / 00:00
OK