Cifra Club

School

Nirvana

Tab de bajo: Principal
G--------------------------------------|
D--------------------------------------|
A--------------------------------------|
E---0-00-5h5-0-0-5h5-0-0-0-0-0-0-5h5---|

Chorus

G-------------------------------------|
D-------------------------------------|
A---3-3-3-3-3-3-3-3-0-0-0-0-0-0-0-0---|
E-------------------------------------|

G:------------------------------- 
D:------------------------------- 
A:------------------------------- 
E:-0--0-0-5^--0-5^-0-5^-0-0-5^^-- 

Fill Before Chorus 
G:------------------------------- 
D:------------------------------- 
A:------------------------------- 
E:-0--0-0-5^--0-5^-0-5^-0-0-0-0-- 

Chorus 
G:-------------------------------------|---------------------- 
D:-------------------------------------|---------------------- 
A:-3--3--3-3---------7--7--7-7--5-5-5-5|3--3--3-3------------- 
E:-----------5-5-5-5-------------------|----------5-5-5-5--5-5
Contribuição;JOSIMAR SOUZA DE ASSIS Joshykiss@gmail.com
00:00 / 00:00
Otros videos de esta canción
Repetir
Otros videos de esta canción
Composición de Kurt Cobain
Colaboración y revisión:
  • Josimar Assis
204 exhibiciones
00:00 / 00:00
OK