Cifra Club

Scoff

Nirvana

Cifrado: Versão 2 (guitarra y guitarra eléctrica)
tono: F#
Tunning: Standard
Afinação Padrão

Intro and verse:
 PM-----------|  PM-----------|
  F#5 F5 E
D|----------------------------------| PM = Palm Mute
A|--4-4-3-0-4-4-3---4-4-3-0-4-4-3---|
E|--2-2-1-0-2-2-1---2-2-1-0-2-2-1---| repeating

Pre Chorus:
"Gimme back my alcohol"   F#5
D|--4-4-----4-4-----4-4-----4-4-----| repeating
A|--4-4-3-0-4-4-3-0-4-4-3-0-4-4-3-0-| go advancing
E|--2-2-----2-2-----2-2-----2-2-----| the frets

Chorus:
"Give me your"
   C5            D5
G|--5--5-5-5-x-x--7--7-7---------|
D|--5--5-5-5-x-x--7--7-7---------| repeting and
A|--3--3-3-3-x-x--5--5-5---------| slide at the
E|-----------------------5-6-5-0-| last time

Post Chorus:
   E5 Eb5 E
G|--9-9-8---9-9-8---9-9-8---9-9-8--| repeating
D|--9-9-8---9-9-8---9-9-8---9-9-8--|
A|--7-7-6-0-7-7-6---7-7-6-0-7-7-6--|
E|--------0---------------0--------|

Do it and repeat it all, then do the solo and repeat it again:

Solo:                                                 D5 Db5         E5 Eb5          F#5
e|-Part-I-------------5------------------------5-----|-Part-II----------------------------|
B|--------------------5------------------------5-----|------------------------------------|
G|---------------------------------------------------|--7-6-7-6-7-6-7--9-8-9-8-9-8-9--11\-|
D|---------------------------------------------------|--7-6-7-6-7-6-7--9-8-9-8-9-8-9--11\-|
A|-----3--2--0-----3-----0------3--2--0-----3-----0--|--5-4-5-4-5-4-5--7-6-7-6-7-6-7---9\-|
E|--2-----------2------------2-----------2-----------|------------------------------------|
                                                    REPETIR A PARTE 2 - Repeat the Part II
At last time Post Chorus is played two times.
Scoff!

PS: Tem "gente" dizendo que essa música é afinada em D, mas NÃO É!!!

by natan_heavy@hotmail.com
00:00 / 00:00
Otros videos de esta canción
Repetir
Otros videos de esta canción
Composición de Kurt Cobain
Colaboración y revisión:
  • Natan
42 exhibiciones
    • ½ Tono
    • A
    • Bb
    • B
    • C
    • Db
    • D
    • Eb
    • E
    • F
    • F#
    • G
    • Ab
  • Agregar a la lista
    00:00 / 00:00
    OK