Cifra Club

Serve The Servants

Nirvana

Bass tab: Principal
Verse/base do solo  
Gb:---------------------------------------------- 
Db:---------------------------------------------- 
Ab:-2-2-2-2-2-5-7-7-7-7-7/9---------------------- 
Eb:-------------------------2--2-2-3-2/-0-0-0---- 
 
 
Chorus x2 
Gb:-------------------------------------------------- 
Db:-----------------------6-7-7-7-6-7\--------------- 
Ab:-----------3-4-4-4-4-4--------------5-4-4-4-4----- 
Eb:-5-5-4-5-5------------------------------------4--- 
 
 
Pós Chorus 
Gb:------------------------ 
Db:------------------------ 
Ab:------------------------ 
Eb:-2-2-2-2-3-3-3-3-3-0----
00:00 / 00:00
Other videos of this song
Repeat
Other videos of this song
Composed by Kurt Cobain
Collaboration and Review:
  • Rony
210 views
00:00 / 00:00
OK