Cifra Club

Sliver

Nirvana

Tab de bajo: Principal
Intro:
E|--------------------------------|
A|--------------------------------|
D|-3--3-3---------3--3-0----0-2---|
G|--------1--1-1----------3-------|

E|--------------------------------|
A|--------------------------------|
D|-3--3-3---------3--1-0----0-2---|
G|--------1--1-1----------3-------|

Refrão:          
E|----------------|   
A|----------------|
D|-0--0-3-3-3-3-3-|
G|----------------|

(verso)
Mom and dad went to a show
they dropped me off at Grandpa Joe's
I kicked and screamed say please,don't go 

(refrão)
Grandma take me home

(verso)
Had to eat my dinner there
Mashed potatoes and stuff like that
I couldn't chew my meats too good

(refrão)
Grandma take me home

(verso)
She said, well, don't you start your crying
Go outside and ride your bike
that's what I did, I killed my toad

(refrão)
Grandma take me home

(verso)
after dinner, I had ice cream
fell asleep, and watched TV
woke up in my mother's arms

(refrão 8x)
Grandma take me home
00:00 / 00:00
Otros videos de esta canción
Repetir
Otros videos de esta canción
Composición de Krist Novoselic / Kurt Cobain
Colaboración y revisión:
906 exhibiciones
00:00 / 00:00
OK