Cifra Club

Smells Like Teen Spirit

Nirvana

Cifrado: Solo (guitarra y guitarra eléctrica)
tono: A
Solo: F5  Bb5  Ab5  Db5

(Parte 1 - 2x)

E|-----------------------------------------------------|
B|-------6\-------4--4b6r4--2--1-----------------------|
G|-5--8------1~----------------------------------------|
D|-----------------------------------------------------|
A|-----------------------------------------------------|
E|-----------------------------------------------------|

E|-----------------------------------------------------|
B|-2--1------------------------------------------------|
G|-------3--1~---3--3b5r3----1--0----------------------|
D|-----------------------------------------------------|
A|-----------------------------------------------------|
E|-----------------------------------------------------|

(Parte 2 - 4x)

E|-----------------------------------------------------|
B|-----------------------------------------------------|
G|-1--0----1--0----1--0----1p0--0----------------------|
D|---------------------------------3~------------------|
A|-----------------------------------------------------|
E|-----------------------------------------------------|
00:00 / 00:00
Otros videos de esta canción
Repetir
Otros videos de esta canción
Composición de Dave Grohl / Krist Novoselic / Kurt Cobain
Colaboración y revisión:
  • Vinícius Dias
  • Christian Oliveira
7.496 exhibiciones
    • ½ Tono
    • A
    • Bb
    • B
    • C
    • Db
    • D
    • Eb
    • E
    • F
    • F#
    • G
    • Ab
  • Agregar a la lista
    00:00 / 00:00
    Capítulos
    • Tocando o solo
    • Dicas Iniciais
    • Configuração do Efeito
    • Solo (70 bpm)
    • Solo (90 bpm)
    • Encerramento
    • Créditos/Erros de Gravação
    OK