Cifra Club

Something In The Way

Nirvana

Cifrado: Versão 4 (guitarra y guitarra eléctrica)
tono: C
[Intro]
 
       E5           G5
E|------------|------------|
B|------------|------------|
G|------------|------------|
D|-2--2-2-2-x-|-5--5-5-5-x-|
A|-2--2-2-2-x-|-5--5-5-5-x-|
E|-0--0-0-0-x-|-3--3-3-3-x-|

  E5            G5
Underneath the bridge
  E5                G5
The tarp has sprung a leak
      E5             G5
And the animals I've trapped
  E5          G5
All become my pets
      E5                 G5
And I give them enough of grass
      E5                 G5
And the drippings from my ceiling
 E5            G5
it's ok to eat fish
        E5                 G5
'Cause they don't have any feelings

  E5             G5
Something in the way 
  E5             G5
Something in the way 
  E5             G5
Something in the way 
  E5             G5
Something in the way 
  E5             G5
Something in the way 
  E5             G5
Something in the way 

[Tab - Riff 1]

E|---------|--------|
B|---------|--------|
G|---------|--------|
D|---------|--------|
A|---4---4-|---0--0-|
E|-4---4---|-0--0---|

[Tab - Refrão]

        G5           E5
E|------------|------------|
B|------------|------------|
G|------------|------------|
D|-5--5-5-5-x-|-2--2-2-2-x-|
A|-5--5-5-5-x-|-2--2-2-2-x-|
E|-3--3-3-3-x-|-0--0-0-0-x-|
00:00 / 00:00
Otros videos de esta canción
Repetir
Otros videos de esta canción
Composición de Dave Grohl / Krist Novoselic / Kurt Cobain
205 exhibiciones
  • Simplificar cifrado
    • ½ Tono
    • A
    • Bb
    • B
    • C
    • Db
    • D
    • Eb
    • E
    • F
    • F#
    • G
    • Ab
  • Agregar a la lista
    00:00 / 00:00
    OK