Cifra Club

Stay Away

Nirvana

Bass tab: Principal
intro/Verso:
G|-------------------------------|
D|----------------3-3-3----------|
A|--5-5--5-2-2--2-------2-0-2-3--|
E|-------------------------------|

PONTE:
G|-------------------------------------|
D|-----------------6-----------------4-|
A|------------6-6--6-----------4-4--4--|
E|-4-4-4h6-------2-2-2h4---------------|

G|-----------------------|
D|-----------------------|
A|-5-5-5-----------------|
D|------5-5-5-3-3-2-3-2--|

REFRÃO:
G|----------------------------|
D|----------------------------|
A|-5-5-5----------------------|
D|------5-5-5-5--8-8-8-8-8-8--|


G|------------------------------------|
D|------------------------------------|
A|--------------------0--0-0-0--------|
D|-3--3-3-3--2--2-2-2----------5--5-5-|


_______________________________________________________
Contribuição: Álvaro Santos Paiva(alvarocobain@hotmail.com)
00:00 / 00:00
Other videos of this song
Repeat
Other videos of this song
Composed by Dave Grohl / Krist Novoselic / Kurt Cobain
298 views
00:00 / 00:00
OK