Cifra Club

Suicide Samurai

Nirvana

Cifrado: Principal (guitarra y guitarra eléctrica)
tono: G
Afinação: Drop D

Verso - palm mutes aqui.
E|------------------------------------------------------------|
B|------------------------------------------------------------|
G|------------------------------------------------------------|
D|3--2--0--3--2--0--3--2--0--3--2--0--3-2-1-2-----------------|
A|3--2--0--3--2--0--3--2--0--3--2--0--3-2-1-2-----------------|
D|3--2--0--3--2--0--3--2--0--3--2--0--3-2-1-2-----------------|

E|------------------------------------------------------------|
B|-0----------------------------------------------------------|
G|-4----------------------------------------------------------|
D|------------------------------------------------------------|
A|------------------------------------------------------------|
D|------------------------------------------------------------|

Soa como que tocado com um harmônico ou vibrato,
    varia ao longo da canção. Ouça o ritmo

Refrão
E|---------0-0-0-0-0-0-----------0-----------------------------|
B|---------0-0-0-0-0-0-----------0-----------------------------|
G|---------4-4-4-4-4-4-----------4--2--------------------------|
D|0--2--3--4-4-4-4-4-4--0--2--3--4--2--3-2-1-------------------|
A|0--2--3--2-2-2-2-2-2--0--2--3--2--0--3-2-1-------------------|
D|0--2--3---------------0--2--3--------3-2-1-------------------|
00:00 / 00:00
Otros videos de esta canción
Repetir
Otros videos de esta canción
Composición de Kurt Cobain
Colaboración y revisión:
  • Danylo Santos
155 exhibiciones
    • ½ Tono
    • A
    • Bb
    • B
    • C
    • Db
    • D
    • Eb
    • E
    • F
    • F#
    • G
    • Ab
  • Agregar a la lista
    00:00 / 00:00
    OK