Cifra Club

Swap Meet

Nirvana

Chords: Principal (acoustic and electric guitars)
tone: G
Verse:
D|--1/2-------5---------4----------1/2------5---------4-|
A|------------5---------4-------------------5---------3-|
E|--3-------------0--3------3p2p0----3----------0--3----|

D|-------|
A|-------|
E| 3p2p0-|

Chorus:
A, C and then this riff:

A|---------------5----------------|
E|-0-3-2-1-0-1-3----0-3-2-1-0-1-0-|

Solo:
E:--------------------------------------------------|
B:--------------------------7^5^0-7^5^0-7^5^0-7^5^0-|
G:--3-----3-----3--2--3---2-------------------------|
D:-----2-----2--3--2--3-----------------------------|

E|----------------------------0-------------------------|
B|------------------7^5^0-----3---7^560------0----------|
G|--3-2-3-2-3-2-3-2--------5--------------5-----3-2-3-2-|
D|--3-2-3-2-3-2-3-2-------------------------------------|

E|-----------------0--------------------------------------|
B|----------7^5^0-----0---7^5^0-----0---------------------|
G|--3-2-3-2--------5-------------5--7-----3-2-3-2-3-2-3-2-|
D|----------------------------------7-----------2-3-------|

E|------------------------------|
B|--7^5^0 7^5^0-----------------|
G|------------------------------|
D|------------------------------|
A|----------------2-------------|
E|--------------------/(12)\--0-|

Ending:
G|--2--2-2-2-2----------|
D|--3--3-3-3-3--------2-|
A|--3--3-3-3-3--------2-|
E|--1--1-1-1-1-/(12)\-0-|


Swap Meet

They lead a lifestyle that is comfortable
They travel far to keep their stomachs full
They make their living off of arts and crafts
The kind with seashells, driftwood and burlap

They make a deal when they come to town
The Sunday swap meet is a battle ground
She loves him more than he will ever know
He loves her more than he will ever show

Keeps his cigarettes close to his heart
Keeps her photographs close to her heart
Keeps the bitterness close to the heart
00:00 / 00:00
Other videos of this song
Repeat
Other videos of this song
1.152 views
    • ½ Tone
    • A
    • Bb
    • B
    • C
    • Db
    • D
    • Eb
    • E
    • F
    • F#
    • G
    • Ab
  • Add to list

Afinação da cifra

Afinador online

    00:00 / 00:00
    OK