Cifra Club

Swap Meet

Nirvana

Tab de bajo: Principal
Riff Inicial

D|---------------------------------------
G|---------------------------------------
C|---------------------------------------
F|---------------------------------------
A|---------------------------------------
D|--0-4-3--0-4-3-2-0-4-3--0-4-3-2-0-4-3--

[continue com ''--0-4-3-2-0-4-3'' na base]

''He loves her more ...''

D|------------------------------------
G|------------------------------------
C|------------------------------------
F|------------------------------------
A|------------------------------------
D|0-4-3--0-4-3-2-0-4-3--0-4-3-2-2/5/4-

Refrão

D|-----------------------------------------------------------------------
G|-----------------------------------------------------------------------
C|-----------------------------------------------------------------------
F|-----------------------------------------------------------------------
A|-----------------------------------------5-----------------------------
D|4-4-4-4--7--7-7--7-7-7-7---0-1-2-3-0-1-2--0-1-2-3-0-1-2/7-4--4-4-4-4--7

D|-------------------------------------------------------------------------
G|-------------------------------------------------------------------------
C|-------------------------------------------------------------------------
F|-------------------------------------------------------------------------
A|-------------------------------5-----------------------------------------
D|--7-7--7-7-7-7---0-1-2-3-0-1-2--0-1-2-3-0-1-2/7-4--4-4-4-4--7--7-7--7-7-7

D|--------------------------------------------------------------------------
G|--------------------------------------------------------------------------
C|--------------------------------------------------------------------------
F|--------------------------------------------------------------------------
A|--------------------------------------------------------------------------
D|-7/11--3-3--2-2--1-1-1-1--1-1/3-------------------------------------------


Base

D|-------------------------------------
G|-------------------------------------
C|-------------------------------------
F|-------------------------------------
A|-------------------------------------
D|0-4-3--0-4-3-2-0-4-3--0-4-3-2-0-4-3--


''He loves her more ...''

D|------------------------------------
G|------------------------------------
C|------------------------------------
F|------------------------------------
A|------------------------------------
D|0-4-3--0-4-3-2-0-4-3--0-4-3-2-2/5/4-

Refrão

D|-----------------------------------------------------------------------
G|-----------------------------------------------------------------------
C|-----------------------------------------------------------------------
F|-----------------------------------------------------------------------
A|-----------------------------------------5-----------------------------
D|4-4-4-4--7--7-7--7-7-7-7---0-1-2-3-0-1-2--0-1-2-3-0-1-2/7-4--4-4-4-4--7

D|-------------------------------------------------------------------------
G|-------------------------------------------------------------------------
C|-------------------------------------------------------------------------
F|-------------------------------------------------------------------------
A|-------------------------------5-----------------------------------------
D|--7-7--7-7-7-7---0-1-2-3-0-1-2--0-1-2-3-0-1-2/7-4--4-4-4-4--7--7-7--7-7-7

D|--------------------------------------------------------------------------
G|--------------------------------------------------------------------------
C|--------------------------------------------------------------------------
F|--------------------------------------------------------------------------
A|--------------------------------------------------------------------------
D|-7/11--3-3--2-2--1-1-1-1--1-1/3-------------------------------------------


[No solo o baixo toca somente a base da música, com uma mudança no final]

D|-----------------------------
G|-----------------------------
C|-----------------------------
F|-----------------------------
A|-----------------------------
D|0-4-3--0-4-3-2-0-4-3--0-4/11-

Base

D|-------------------------------------
G|-------------------------------------
C|-------------------------------------
F|-------------------------------------
A|-------------------------------------
D|0-4-3--0-4-3-2-0-4-3--0-4-3-2-0-4-3--


''He loves her more ...''

D|------------------------------------
G|------------------------------------
C|------------------------------------
F|------------------------------------
A|------------------------------------
D|0-4-3--0-4-3-2-0-4-3--0-4-3-2-2/5/4-

Refrão

D|-----------------------------------------------------------------------
G|-----------------------------------------------------------------------
C|-----------------------------------------------------------------------
F|-----------------------------------------------------------------------
A|-----------------------------------------5-----------------------------
D|4-4-4-4--7--7-7--7-7-7-7---0-1-2-3-0-1-2--0-1-2-3-0-1-2/7-4--4-4-4-4--7

D|-------------------------------------------------------------------------
G|-------------------------------------------------------------------------
C|-------------------------------------------------------------------------
F|-------------------------------------------------------------------------
A|-------------------------------5-----------------------------------------
D|--7-7--7-7-7-7---0-1-2-3-0-1-2--0-1-2-3-0-1-2/7-4--4-4-4-4--7--7-7--7-7-7

D|--------------------------------------------------------------------------
G|--------------------------------------------------------------------------
C|--------------------------------------------------------------------------
F|--------------------------------------------------------------------------
A|--------------------------------------------------------------------------
D|-7/11--3-3--2-2--1-1-1-1--1/3-0-------------------------------------------
00:00 / 00:00
Otros videos de esta canción
Repetir
Otros videos de esta canción
Composición de Kurt Cobain
Colaboración y revisión:
  • Biel Cobain
52 exhibiciones
00:00 / 00:00
OK