Cifra Club

Territorial Pissing

Nirvana

Chords: Principal (acoustic and electric guitars)
tone: D
[Intro] A5  F5  D5 
        A5  F5  D5 

            A5                   F5                          D5  
E|--------------------|---------------------------|---------------------------------------------------|
B|--------------------|---------------------------|---------------------------------------------------|
G|--------------------|--10-10-10-10-10-10-10-10--|---------------------------------------------------|
D|--7--7--7--7--7--7--|--10-10-10-10-10-10-10-10--|--12-12-12-12-12-12-12-12-12-12-12-12-12-12-12-12--|
A|--7--7--7--7--7--7--|--8--8--8--8--8--8--8--8---|--12-12-12-12-12-12-12-12-12-12-12-12-12-12-12-12--|
E|--5--5--5--5--5--5--|---------------------------|--10-10-10-10-10-10-10-10-10-10-10-10-10-10-10-10--|

A5      F5      D5
When I was an alien
A5      F5      D5
Cultures were not opinions
A5      F5      D5      A5      F5      D5
Gotta find a way, find a way, when I'm there
A5      F5      D5      A5      F5      D5
Gotta find a way, a better way, I'd better wait
A5      F5      D5
Never met a wise man
A5      F5      D5
If so it's a woman
A5      F5      D5      A5      F5      D5
Gotta find a way, find a way, when I'm there
A5      F5      D5      A5      F5      D5
Gotta find a way, a better way, I'd better wait
A5      F5      D5      A5      F5      D5
Gotta find a way, find a way, when I'm there
A5      F5      D5      A5      F5      D5
Gotta find a way, a better way, I'd better wait

Riff2]

    Pm--      PM--
E|----------------------------|
B|----------------------------|
G|----------------------------|
D|----------------------------|
A|--------7---------7---------|
E|--5--5--5---5--5--5---------|

    Pm--
E|----------------------------|
B|----------------------------|
G|----------------------------|
D|----------------------------|
A|--------7-------------------|
E|--5--5--5-/15---------------|

Just because you're paranoid
Doesn't mean they're
Not after you

  A5      F5      D5      A5      F5      D5
Gotta find a way, find a way, when I'm there
A5      F5      D5      A5      F5      D5
Gotta find a way, a better way, I'd better wait
A5      F5      D5      A5      F5      D5
Gotta find a way, find a way, when I'm there
A5      F5      D5      A5      F5      D5
Gotta find a way, a better way, I'd better wait

A5      F5      D5      A5      F5      D5
Gotta find a way, find a way, when I'm there
A5      F5      D5      A5      F5      D5
Gotta find a way, a better way, I'd better wait
A5      F5      D5      A5      F5      D5
Gotta find a way, find a way, when I'm there
A5      F5      D5      A5      F5      D5
Gotta find a way, a better way, I'd better wait
00:00 / 00:00
Other videos of this song
Repeat
Other videos of this song
6.417 views
    • ½ Tone
    • A
    • Bb
    • B
    • C
    • Db
    • D
    • Eb
    • E
    • F
    • F#
    • G
    • Ab
  • Add to list

Afinação da cifra

Afinador online

    00:00 / 00:00
    OK