Cifra Club

Tourette's

Nirvana

Cifrado: Principal (guitarra y guitarra eléctrica)
tono: E (con acordes en la forma de F) Afinación: Eb Ab Db Gb Bb Eb
[Intro]

      F#5      F5       B5        G5                                
E|--------------------------------------|
B|--------------------------------------|
G|----------3-3-3-3--4-4-4-4------------| (7x)
D|-4-4-4-4--3-3-3-3--4-4-4-4--5-5-5-5---|
A|-4-4-4-4--1-1-1-1--2-2-2-2--5-5-5-5---|
E|-2-2-2-2--------------------3-3-3-3---|

[Primeira Parte] 

  F#5    F5   B5   G5
Mayday, every day, my day
  F#5    F5   B5   G5
Could've had a heart attack, my heart
  F#5    F5   B5   G5
We don't know anything, my heart
  F#5    F5   B5   G5
We all want something fair, my heart

           F
E|-------------------|
B|-------------------|
G|----4-3--3--4p3p0--| (8x)
D|-4-----------------|
A|-4-----------------|
E|-2-----------------|
 
 F
Hey!
 F    F
Hey, hey!
 F    F
Hey, hey!

  F#5    F5   B5   G5 
Out of town, out of sight is my heart
  F#5    F5   B5   G5
Queen of lies, today, my heart
  F#5    F5   B5   G5
One more on the phone, my heart
  F#5    F5   B5   G5
One more at the door of my heart
  
F
Hey!
F     F
Hey, hey!
F#5    F5   B5   G5
Mean heart, cold heart
F#5    F5   B5   G5
Cold heart, cold heart
F#5    F5   B5   G5
Cold heart, cold heart
F#5    F5   B5   G5
Cold heart, cold heart
00:00 / 00:00
Otros videos de esta canción
Repetir
Otros videos de esta canción
Composición de Kurt Cobain
Colaboración y revisión:
  • Lucas Araújo
2.005 exhibiciones
    • ½ Tono
    • A
    • Bb
    • B
    • C
    • Db
    • D
    • Eb
    • E
    • F
    • F#
    • G
    • Ab
  • Agregar a la lista
    00:00 / 00:00
    OK