Cifra Club

Turnaround

Nirvana

Tab de bajo: Principal
Verse
G------------------------------|a few times
D------------------------------|
A------------------7-7-7-7-7-7-| 
E-0-0-0-0-0-0-0-0--------------|

Chorus
G------------------------------|twice
D------------------------------|
A-5-5-5--3-3-2-0-0-0-0-0-0-0-0-|
E------------------------------|

G-------------------------------|-------------------------------|then 1st part of this again
D-------------------------------|-------------------------------| 
A-------------------------------|---------------5-5-5-5-5-5-5-5-|
E-1-1-1--3-3-3--5-5-5-5-5-5-5-5-|-1-1-1--3-3-3------------------| 


_______________________________________________________
Contribuição: Felipe Furlan da Rosa(fynonlipy@mtv.com.br)
00:00 / 00:00
Otros videos de esta canción
Repetir
Otros videos de esta canción
Composición de Gerald V. Casale / Mark Mothersbaugh
43 exhibiciones
00:00 / 00:00
OK