Cifra Club

You Know You're Right

Nirvana

Tablatura: Principal (guitarra)
Tom: D
E|-------------------------------------------|
B|-------------------------------------------|
G|----------7--------5-----7--------5--------|
D|-------7--------5------7-------5-----------|
A|----7---------5------7-------5-------------|
E|-------------------------------------------|

E|--------------------------------------------------|
B|--------------------------------------------------|
G|---------------------(0)-----------------(0)------|
D|-------------------4-------------------4----------|
A|--------------------------------------(4)---------|
E|---0/2--2--2--2---------0/2--2--2-----------------|

"I Will never bother you..."

      D5       E5
E|------------------------------|
B|------------------------------|
G|------------------------------|
D|---777777---999999------------|
A|---555555---777777------------|
E|---000000---000000------------|

"Never speak a word again..."

E|-----------------------------------------------------------------------------------------------|
B|-----------------------------------------------------------------------------------------------|
G|----------------------3-----------------(0)----------------------------------0-----------------|
D|-------------------4---------------------4------------------4----------------4-----------------|
A|----------------------------------------(4)---------------------------------(4)----------------|
E|---0/2--2--2--2-----------0/2--2--2-----------0/2--2--2--2-------0/2--2--2---------------------|

E|---------------------------------------------------|
B|------7--------7-----------9---------9-------------|
G|---------7---------------------9-------------------|
D|------------7------7--------------9-----9----------|
A|---------------------------------------------------|
E|--5-------------------5/7--------------------------|

“Things have never been so swell
I have never failed to feel........”

    F#
E|----------------------|
B|----------------------|
G|----------------------|
D|-4-4-4-4/4-44444------|   (3x)
A|-4-4-4-4/4-44444------|
E|-2-2-2-0/2-22222------|

         D5            E5
E|--------------------------|
B|--------------------------|
G|--------------------------|
D|---777777---999999--------|
A|---555555---777777--------|
E|--------------------------|


“You know you’re right....”

E|-------14--14-14-(...)--16-16b--14--16--14----------|
B|----------------------------------------------------|
G|----------------------------------------------------|
D|----------------------------------------------------|
A|----------------------------------------------------|
E|---8b-----------------------------------------------|

I'm so warm and calm inside
I no longer have to hide
Let’s talk about someone else
Steaming soup against her mouth

E|-------------------------------------------------------|
B|-------------------------------------------------------|
G|-------------------------------------------------------|
D|-------------------------------------------------------|
A|-------------------------------------------------------|
E|---0/2--2-2-----0/2--2----0/2--2--2----0/2--2-(...)----|

E|------------------------------------------------|
B|------7--------7-----------9---------9----------|
G|---------7---------------------9----------------|
D|------------7------7--------------9-----9-------|
A|------------------------------------------------|
E|--5-------------------5/7-----------------------|

Nothing really bothers her
She just wants to love herself

E|-----------------------------------------------|
B|-----------------------------------------------|
G|---------------------(0)-----------------(0)---|
D|-------------------4-------------------4-------|
A|--------------------------------------(4)------|
E|---0/2--2--2--2---------0/2--2--2--------------|

I will move away from here
You wont be afraid of fear
No thought was put into this
I always knew to come like this

      D5       E5
E|------------------------------|
B|------------------------------|
G|------------------------------|
D|---777777---999999------------|
A|---555555---777777------------|
E|------------------------------|

Things have never been so swell
I have never failed to feel

E|-----------------------|
B|-----------------------|
G|-----------------------|
D|--3/4--4-44-44444------|   (8x)
A|--3/4--4-44-44444------|
E|--1/2--2-00-22222------|

"Pain..."

         D5            E5
E|------------------------------|
B|------------------------------|
G|------------------------------|
D|---777777---999999------------|
A|---555555---777777------------|
E|------------------------------|

"..Paaaaain.... You know you’re right....."

[Solo]

E|------------------------------------------------------------|
B|------------------------------------------------------------|
G|----------------------7b--10b-10~---7--8---9b---------------|
D|--4444/444444--------------------------------------8--7-----|
A|--4444/444444-----------------------------------------------|
E|--2220/022222-----------------------------------------------|

E|------------------------------------------------------------|
B|------------------------------------------------------------|
G|----------------10b---------------9b----------------9b------|
D|--8--7--8--7--------8--7--8--7-------8--7--8--7-------------|
A|------------------------------------------------------------|
E|------------------------------------------------------------|

E|------------------------------------------------------------|
B|------------------------------------------------------------|
G|-----------------9b---------------9b---------------9b-------|
D|---8--7--8--7-------8--7--8--7------8--7--8--7--------------|
A|------------------------------------------------------------|
E|------------------------------------------------------------|

E|---------------------------------------------12~---9--------|
B|---------------------------------------11b------------------|
G|---------------9b----------------9b-------------------------|
D|-8--7--8--7-------8--7--8--7--------------------------------|
A|------------------------------------------------------------|
E|------------------------------------------------------------|

E|------------------------------------------------------------|
B|-------------------0---------------0----------------0-------|
G|----------0----0----------0----0----------0----0------------|
D|-------0----0----------0----0----------0----0---------------|
A|----0---------------0----------------0----------------------|
E|------------------------------------------------------------|
reproducciones 8.229
Acordes para:
    Composição: Kurt Cobain Colaboración y revision:

    0 comentarios

    mostrar más comentarios

    ¿Conseguiste tocar?

    16 tocaron 4 aún no

    ¡Graba un vídeo tocando You Know You're Right y envianoslo!

    00:00 / 00:00
    outros vídeos desta música
    repetir qualidade Automático
    Outros vídeos desta música
    00:00 / 00:00
    Automático
    OK