Cifra Club

You Know You're Right

Nirvana

Tab de bajo: Versão 2
G:-----------------------------------------------------------------------------
D:4----------------------------------------------------------------------------
A:4-5-7-----7-5-7-----7----3-3-3-3-3-3-3-3-3-3-3-3-5-5-5-5-5-5-5-5-5-5-5-5-5-5-
E:------0-0-------0-0----------------------------===---------------------------


G:------------------------------------------------------------------------------
D:------------------------------------------------------------------------------
A:-5-7-----7-----------5-7-----7--------/10-10-10-10----5-7-----7---------------
E:-----0-0---3-3-3-3-3------0-0---3-3-3---------------0-0-----/5-5-5-5-5-5-5----


G:--------------------------
D:--------------------------
A:-5-7-----7----------------
E:-----0-0---5-5-5-5-5-5-5--
00:00 / 00:00
Otros videos de esta canción
Repetir
Otros videos de esta canción
Composición de Kurt Cobain
Colaboración y revisión:
  • Élison Duarte
25 exhibiciones
00:00 / 00:00
OK