Cifra Club

Em Tua Presença

Nívea Soares

Tablatura: Principal
reproducciones 2.204
Tono: G
[Intro] G  C9  Am7  Em7  C9

Dedilhado da Introdução (Violão):
   G
E|---------------------------------------------------------------------------------------------|
B|--------3----------3--------------3---------3------------------------------------------------|
G|------0-----0---0------0--------0-----0---0-------0------------------------------------------|
D|----0-----0---0------0--------0-----0---0-------0--------------------------------------------|
A|---------------------------------------------------------------------------------------------|
E|-3------------------------3------------------------------------------------------------------|

   C9
E|---------------------------------------------------------------------------------------------|
B|-------3-----------------3------------------3------------------3-----------------------------|
G|-----0----------0-----0---------0---------0-----------0-----0---------2----------------------|
D|---2---------2---- 2---------2----------2----------2-----2---------0-------------------------|
A|-3------------------------------------3------------------------------------------------------|
E|---------------------------------------------------------------------------------------------|

   Am7                                 Em
E|---------------------------------------------------------------------------------------------|
B|-------1----------------0------------------0----------------0--------------------------------|
G|-----0---------0-----0---------0---------0---------0-----0---------0-------------------------|
D|---2--------2-----2---------2----------2--------2-----2---------2----------------------------|
A|-0-----------------------------------2-------------------------------------------------------|
E|---------------------------------------------------------------------------------------------|

   C9
E|---------------------------------------------------------------------------------------------|
B|-------3-----------------3------------------3-----------------3------------------------------|
G|-----0----------0-----0---------0---------0----------0-----0----------0----------------------|
D|---2---------2-----2----------2---------2---------2-----2----------2-------------------------|
A|-3------------------------------------3------------------------------------------------------|
E|---------------------------------------------------------------------------------------------|

            G           C9
Eu quero estar neste lugar
          Am7                  Em7              C9
Onde o pecado é perdoado e as culpas são levadas

            G           C9
Eu quero estar neste lugar
         Am7                   Em7              C9
Onde o amor não se esfrie e o fogo não se apague

           Am7      Em7   G  D
Em Tua presença Senhor Jesus
           Am7      Em7   G
Em Tua presença Senhor Jesus

(Guitarra)
    G/D    D4
E|-7---------5---------------------------------------------------------------------------------|
B|-8--------8----8----7\8\7--------------------------------------------------------------------|
G|-7------7----------------7\2-----------------------------------------------------------------|
D|---------------------------------------------------------------------------------------------| (3x)
A|---------------------------------------------------------------------------------------------|
E|---------------------------------------------------------------------------------------------|

         C9    Am7      Em7           D
Santo Espírito,  eu me rendo ao Teu agir
       C9    Am7      Em7         D
Meu anseio é, permanecer em Teu amor

           C9       Am7
Em Tua presença Senhor
           Em7  D
Em Tua presença
           C9       Am7
Em Tua presença Senhor
           Em7  D
Em Tua presença

[Solo] C9  Am7  Em7  D9
       C9  Am7  Em7  D9

E|-12-12-12-15-15-15-14-14-14--------------------12-12-12-15-15-15-14-14-14--------------------|
B|-----------------------------12-12-12-12-12-12------------------------------10-10-10-10-10-10|
G|---------------------------------------------------------------------------------------------|  (2x)
D|---------------------------------------------------------------------------------------------|
A|---------------------------------------------------------------------------------------------|
E|---------------------------------------------------------------------------------------------|
                                                                                                  
E|------------10-10------------10-10-----------------------------------------------------------|
B|-10h12--12---------10h12-12---------10h12--10-----777-888-101010-121212-151515---------------|
G|---------------------------------------------------------------------------------------------|
D|---------------------------------------------------------------------------------------------|
A|---------------------------------------------------------------------------------------------|
E|---------------------------------------------------------------------------------------------|

E|-12-12-12-15-15-15-14-14-14--------------------12-12-12-15-15-15-14-14-14--------------------|
B|-----------------------------12-12-12-12-12-12------------------------------10-10-10-10-10-10|
G|---------------------------------------------------------------------------------------------| (2x)
D|---------------------------------------------------------------------------------------------|
A|---------------------------------------------------------------------------------------------|
E|---------------------------------------------------------------------------------------------|

E|------------10-10------------10-10-----------------------------------------------------------|
B|-10h12--12---------10h12-12---------10h12--10-----777-888------------------------------------|
G|----------------------------------------------------------999-7777---------------------------|
D|---------------------------------------------------------------------------------------------|
A|---------------------------------------------------------------------------------------------|
E|---------------------------------------------------------------------------------------------|

            G           C9
Eu quero estar neste lugar
          Am7                    Em7             C9
Onde o poder não me corrompa,riquezas não me ceguem
            G           C9
Eu quero estar neste lugar
        Am7                    Em7             C9
Onde o mundo não me atraia,paixões não me seduzam

Riff 1
E|----------------------------------|
B|----13---8---12---7---13---8----12|
G|----------------------------------|
D|--14---9---12---7---14---9----9/12|
A|----------------------------------|
E|----------------------------------|

           Am7      Em7   G  D
Em Tua presença Senhor Jesus
           Am7      Em7   G
Em Tua presença Senhor Jesus

         C9   Am7       Em7           D
Santo Espírito,  eu me rendo ao Teu agir
       C9    Am7      Em7         D
Meu anseio é, permanecer em Teu amor

           C9       Am7
Em Tua presença Senhor
           Em7  D
Em Tua presença
           C9       Am7
Em Tua presença Senhor
           Em7  D
Em Tua presença

[Solo] C9  Am7  Em7  D9
       C9  Am7  Em7  D9
       C9  Am7  Em7  D9


E|-12-12-12-15-15-15-14-14-14-------------------12-12-12-15-15-15-14-14-14------------------|
B|----------------------------12-12-12-12-12-12----------------------------10-10-10-10-10-10|
G|------------------------------------------------------------------------------------------|
D|------------------------------------------------------------------------------------------|
A|------------------------------------------------------------------------------------------|
E|------------------------------------------------------------------------------------------|

E|------------10-10------------10-10-----------------------------------------------------------|
B|-10~12--12---------10~12-12----------10~12--10-----777-888-101010-121212-151515--------------|
G|---------------------------------------------------------------------------------------------|
D|---------------------------------------------------------------------------------------------|
A|---------------------------------------------------------------------------------------------|
E|---------------------------------------------------------------------------------------------|

E|-12-12-12-15-15-15-14-14-14-------------------12-12-12-15-15-15-14-14-14------------------|
B|----------------------------12-12-12-12-12-12----------------------------10-10-10-10-10-10|
G|------------------------------------------------------------------------------------------|
D|------------------------------------------------------------------------------------------|
A|------------------------------------------------------------------------------------------|
E|------------------------------------------------------------------------------------------|

E|------------10-10------------10-10-----------------------------------------------------------|
B|-10~12--12---------10~12-12----------10~12--10-----777-888-101010-121212-151515--------------|
G|---------------------------------------------------------------------------------------------|
D|---------------------------------------------------------------------------------------------|
A|---------------------------------------------------------------------------------------------|
E|---------------------------------------------------------------------------------------------|

E|---19-------19-------19-------19-------19-20-19-17-19----19-------19-------19-------19-------19-20-19-17-19|
B|17----17-17----17-17----17-17----17-17----------------17----17-17----17-17----17-17----17-17---------------|
G|-----------------------------------------------------------------------------------------------------------|
D|-----------------------------------------------------------------------------------------------------------|
A|-----------------------------------------------------------------------------------------------------------|
E|-----------------------------------------------------------------------------------------------------------|
                                                                      
E|---19-------17-------20-------19-------19-17----14-------14-------14-------14-------14---------------------|
B|17----17-17----17-17----17-17----15-15-------15----15-15----15-15----15-15----15-15----15------------------|
G|-----------------------------------------------------------------------------------------------------------|
D|-----------------------------------------------------------------------------------------------------------|
A|-----------------------------------------------------------------------------------------------------------|
E|-----------------------------------------------------------------------------------------------------------|

E|---19-------19-------19-------19-------19-20-19-17-19----19-------19-------19-------19-------19-20-19-17-19|
B|17----17-17----17-17----17-17----17-17----------------17----17-17----17-17----17-17----17-17---------------|
G|-----------------------------------------------------------------------------------------------------------|
D|-----------------------------------------------------------------------------------------------------------|
A|-----------------------------------------------------------------------------------------------------------|
E|-----------------------------------------------------------------------------------------------------------|
                                                                      
E|---19-------17-------20-------19-------19-17----14-------14-------14-------14-------14--------15-----------|
B|17----17-17----17-17----17-17----15-15-------15----15-15----15-15----15-15----15-15----15-----15-----------|
G|-----------------------------------------------------------------------------------------------------------|
D|-----------------------------------------------------------------------------------------------------------|
A|-----------------------------------------------------------------------------------------------------------|
E|-----------------------------------------------------------------------------------------------------------|

         C9   Am7       Em7           D
Santo Espírito,  eu me rendo ao Teu agir
       C9    Am7      Em7         D
Meu anseio é, permanecer em Teu amor

           C9       Am7
Em Tua presença Senhor
           Em7  D
Em Tua presença
           C9       Am7
Em Tua presença Senhor
           Em7  D
Em Tua presença

0 comentarios

    mostrar más comentarios

    ¿Conseguiste tocar?

    82tocaron1aún no

    ¡Graba un vídeo tocando Em Tua Presença y envianoslo!

    00:00 / 00:00
    outros vídeos desta música
    repetirqualidadeautomática
    Outro vídeos desta música
      00:00 / 00:00
      automática
      OK