Cifra Club

Head

The Nixons

Cifrado: Principal (guitarra y guitarra eléctrica)
Selo Cifra Club: esta cifra foi revisada para atender aos critérios oficiais da nossa Equipe de Qualidade.
tono: C
[Intro]
E|-------------|
B|-------------|
G|-------------|
D|--2----------| [hold/sustain for 4 measures]
A|--2----------|
E|--0----------|

[Verse]
Lonely little girl on your island;
won't you come to me... 

     Em                 D
E|-----------0----------2-2-2-2-2-2-2-2-------|
B|-------------0--------3-3-3-3-3-3-3-3-------|
G|----------------------2-2-2-2-2-2-2-2-------|
D|--2-------------------0-0-0-0-0-0-0-0-------|
A|--2-----------------------------------------|
E|--0-----------------------------------------|

I'm in a lonely little upstairs room without you, 
won't you come to me, come on come on come on come on...

    D     A       Em       D
E|-2-2---0-0----------0---2-2------------|
B|-3-3---2-2----------0---3-3------------|
G|-2-2---2-2--------------2-2------------|
D|-0-0---2-2-----2-2------0-0------------|
A|-------0-0-----2-2---------------------|
E|---------------0-0---------------------|

     A5    G5     F#5    F5
E|---------------------------------------|
B|---------------------------------------|
G|---------------------------------------|
D|--7-7-----5-5-----4-4-----3-3----------| x4
A|--7-7-x-x-5-5-x-x-4-4-x-x-3-3-x-x------|
E|--5-5-x-x-3-3-x-x-2-2-x-x-1-1-x-x------|

Laugh about it, cry about it
Wouldn't go nowhere without it
Get up early, get a worm, 
even if you're not a bird
It's mine, mine, mine ...

     (A)   (C)   (F)   (Em)
E|---------------------------------------|
B|---------------------------------------|
G|---------------------------------------|
D|----------3---2-------------3---2------| x4
A|--0---3--------------0---3-------------|
E|---------------------------------------|

     E5
E|-------|
B|-------|
G|-------|
D|--2-2--|
A|--2-2--|
E|--0-0--|

Take my heart, take my soul, 
take my love; still want more
Well I'm keeping my head
Keeping my head

     A5    G5     F#5    F5
E|---------------------------------------|
B|---------------------------------------|
G|---------------------------------------|
D|--7-7-----5-5-----4-4-----3-3----------| x4
A|--7-7-x-x-5-5-x-x-4-4-x-x-3-3-x-x------|
E|--5-5-x-x-3-3-x-x-2-2-x-x-1-1-x-x------|

[Verse]
Lonely little girl on your island, 
won't you come to me
I'm in a place I think I know you've seen before
Come to me...

     Em                 D
E|-----------0----------2-2-2-2-2-2-2-2-------|
B|-------------0--------3-3-3-3-3-3-3-3-------|
G|----------------------2-2-2-2-2-2-2-2-------|
D|--2-------------------0-0-0-0-0-0-0-0-------|
A|--2-----------------------------------------|
E|--0-----------------------------------------|

    D     A       Em       D
E|-2-2---0-0----------0---2-2------------|
B|-3-3---2-2----------0---3-3------------|
G|-2-2---2-2--------------2-2------------|
D|-0-0---2-2-----2-2------0-0------------|
A|-------0-0-----2-2---------------------|
E|---------------0-0---------------------|

[Interlude]
     A5
E|----------------------------------------|
B|----------------------------------------|
G|----------------------------------------|
D|--7-7-7-7-7--x-x-x-x-x-x-x-x------------| x3
A|--7-7-7-7-7--x-x-x-x-x-x-x-x------------|
E|--5-5-5-5-5--x-x-x-x-x-x-x-x------------|

     A5
E|-----------------------------|
B|-----------------------------|
G|-----------------------------|
D|--7-7-7-7-7--x-7-x-7-7-7-----|
A|--7-7-7-7-7--x-7-x-7-7-7-----|
E|--5-5-5-5-5--x-5-x-5-5-5-----|

     A5    G5     F#5    F5
E|---------------------------------------|
B|---------------------------------------|
G|---------------------------------------|
D|--7-7-----5-5-----4-4-----3-3----------| x4
A|--7-7-x-x-5-5-x-x-4-4-x-x-3-3-x-x------|
E|--5-5-x-x-3-3-x-x-2-2-x-x-1-1-x-x------|

[Verse]
Laugh about it, die without it, 
couldn't think a thing without it
In the front it's getting cold, 
in the back it's even older
It's mine, mine, yours, mine, his, hers,
it, shit, not, hot, it's...a lot

     (A)   (C)   (F)   (Em)
E|---------------------------------------|
B|---------------------------------------|
G|---------------------------------------|
D|----------3---2-------------3---2------| x6
A|--0---3--------------0---3-------------|
E|---------------------------------------|

     E5
E|-------|
B|-------|
G|-------|
D|--2-2--|
A|--2-2--|
E|--0-0--|

Take my soul, take my heart, 
take my legs, private parts
But I'm keeping my head
Keeping my head
Keeping my head...

     A5    G5     F#5    F5
E|---------------------------------------|
B|---------------------------------------|
G|---------------------------------------|
D|--7-7-----5-5-----4-4-----3-3----------| x8
A|--7-7-x-x-5-5-x-x-4-4-x-x-3-3-x-x------|
E|--5-5-x-x-3-3-x-x-2-2-x-x-1-1-x-x------|

[Outro]
     A5
E|----------------------------------------|
B|----------------------------------------|
G|----------------------------------------|
D|--7-7-7-7-7--x-x-x-x-x-x-x-x------------|
A|--7-7-7-7-7--x-x-x-x-x-x-x-x------------|
E|--5-5-5-5-5--x-x-x-x-x-x-x-x------------|

     A5
E|------------------------|
B|------------------------|
G|------------------------|
D|--7-7-7-7-7------7+-----|
A|--7-7-7-7-7----7+---7+--|
E|--5-5-5-5-5--7+---------|

Lonely little girl; on your island

     A      Em
E|--0-------------|
B|--2-------------|
G|--2-------------|
D|--2------2------|
A|--0------2------|
E|---------0------|



************************************

| b  Bend
| x  Dead note
| +  
Harmonic
Otros videos de esta canción
    8 exhibiciones
      • ½ Tono
      • A
      • Bb
      • B
      • C
      • Db
      • D
      • Eb
      • E
      • F
      • F#
      • G
      • Ab
    • Agregar a la lista

    Afinación de cifrado

    Afinador online

      OK