Cifra Club

Bota Na Geral

No Styllo

Cifrado: Principal (guitarra y guitarra eléctrica)
tono: D
E|------------------------------------------
B|------------------------------------------
G|------------------------------------------   (2x)
D|------------------------------------------
A|-2-0-2-2-0-2-2-0-5-4-2-0------------------
E|-------------------------2----------------

E|------------------------------------------
B|------------------------------------------
G|------------------------------------------
D|------------------------------------------
A|-0-0-0-0-0-2-0-0-2-2-0-0------------------
E|-------------------------2----------------

E|------------------------------------------
B|------------------------------------------
G|------------------------------------------
D|------------------------------------------
A|-0-0-0-0-0-0-0-2-2-2-2-4-4-2-0-5----------
E|------------------------------------------

E|------------------------------------------
B|------------------------------------------
G|------------------------------------------
D|------------------------------------------
A|-2-0-2-2-0-2-2-0-2-0-2-3-4----------------
E|------------------------------------------

Refrão 2x:
E|------------------------------------------
B|------------------------------------------
G|------------------------------------------
D|------------------------------------------
A|-0-2-0---0-2-0---0-2-0---0-2-0------------
E|-------2-------3------3--------2----------

00:00 / 00:00
Otros videos de esta canción
Repetir
Otros videos de esta canción
Composición de Chiclete Ferreira
Colaboración y revisión:
  • Junior NoW
22 vistas
    • ½ Tono
    • A
    • Bb
    • B
    • C
    • Db
    • D
    • Eb
    • E
    • F
    • F#
    • G
    • Ab
  • Agregar a la lista

    0 comentarios

    Ver todos los comentarios

    ¿Lograste tocar?

    6 Tocaron 0 Aún no

    ¡Graba un video tocando Bota Na Geral y envíanoslo!

    00:00 / 00:00
    OK