Cifra Club

A Las Nueve

No Te Va Gustar

Cifrado: Principal (guitarra y guitarra eléctrica)
Selo Cifra Club: esta cifra foi revisada para atender aos critérios oficiais da nossa Equipe de Qualidade.
tono: G
[Intro] D  D9  D4  D  
        Am  A4  Am7  Am6  A4
        Em  Em9  Em  Em9  Em7 
        D  D9  D4  D

[Primeira Parte]

                         
¿Cómo que tenés que irte? 
      Am
Si recién te vi llegar
      Em                    
Solo me das en un rato 
          D        D9  D4  D
Lo que tenés para dar
                    
Espero sea una broma 
           Am
Aunque en realidad lo entiendo
       Em                  
No querés sinceridad 
                D
Ni que te siga mintiendo

[Refrão]

Em            G            D    
   Sé que te vas a las nueve 
C            Em           
  Sé que me muero a las diez
D                      
  Sabes  estoy de tu lado
       Am
No me pidas mas que eso 
           Em                       
Cuando la noche se apague
       D        D9   D4  D
Vas a darme un solo beso 
                      
Tengo la mente cansada 
      Am
Y mi piel se va con vos
            Em                         
Ya me explicaste mil veces 
        D
Lo que veo es lo que sos
Em            G            D    
   Sé que te vas a las nueve 
C           Em               D
  Sé que me muero a las diez

[Ponte]

F#                     G
   No puedo dar garantías
F#                    G
   Si se apaga cada día
             Gm
No creo que pueda esperar 

[Segunda Parte]

D                          
  Yo te lo quise hacer fácil
       Am
La distancia no es el fin 
           Em                       
Pero no quiero entregarme
      D          D9    D4  D
Y que algo muera en mi 
            D9      D4  D                   
Ya se, no  tenes  idea
        Am           Am7  Am6
Vos te vas y yo me quedo 
      Em                   
Solo voy a perdonarte
 Em9         D
Porque otra cosa no quiero 

[Refrão 2]

Em            G            D   
   Sé que te vas a las nueve 
C            Em           D
  Sé que me muero a las diez
Em            G            D   
   Sé que te vas a las nueve
C            Em           D
  Sé que me muero a las diez 

[Solo] Em  G  D  C  
       Em  D  Em  G  D

[Tab - Solo]

Parte 1 de 5
                Em  G       D 
E|------------------------------------------|
B|------------------------------------------|
G|-7-7-7-7-7-7-7----5-4-2/4-2-0h2-----------|
D|---------------------------------4--0-----|
A|------------------------------------------|
E|------------------------------------------|

Parte 2 de 5
   C             Em          D                 
E|------------------------------------------|
B|-7b8r7---------7b8r7----------------------|
G|-------7~-7-7--------7-7h9-7--7/9-9/11-11-|
D|------------------------------------------|
A|------------------------------------------|
E|------------------------------------------|

Parte 3 de 5                      
                                      Em
E|------------------------------------------|
B|--------------------12--13--15--13--15----|
G|-12--12/14--14--14------------------------|
D|------------------------------------------|
A|------------------------------------------|
E|------------------------------------------|

Parte 5 de 5
                      G
E|---------17-----17~---------17------17~---|
B|-15--15-----15------15--15------15--------|
G|------------------------------------------|
D|------------------------------------------|
A|------------------------------------------|
E|------------------------------------------|

[Final]

        D   C
A las nueve
    Em           D
Me muero a las diez

[Tab - Final]

Parte 1 de 3
            D                   
E|----------17b19--19--19--19r17--17--17\15-|
B|--15--15----------------------------------|
G|------------------------------------------|
D|------------------------------------------|
A|------------------------------------------|
E|------------------------------------------|

Parte 2 de 3
                              C
E|--15--15p14--15p14------12--12b14r12------|
B|--------------------15----------------15--|
G|------------------------------------------|
D|------------------------------------------|
A|------------------------------------------|
E|------------------------------------------|

Parte 3 de 3
           Em                   D
E|---------12b14r12-------------------------|
B|-15--15------------15--15h17--15----------|
G|------------------------------------------|
D|------------------------------------------|
A|------------------------------------------|
E|------------------------------------------|
Otros videos de esta canción
    260.930 exhibiciones
    • Simplificar cifrado
      • ½ Tono
      • A
      • Bb
      • B
      • C
      • Db
      • D
      • Eb
      • E
      • F
      • F#
      • G
      • Ab
    • Agregar a la lista

    Afinación de cifrado

    Afinador online

      OK