Cifra Club

Impar

Noção De Nada

Cifrado: Principal (guitarra y guitarra eléctrica)
Selo Cifra Club: esta cifra foi revisada para atender aos critérios oficiais da nossa Equipe de Qualidade.
tono: A
E|-----2-------0-0--------|
B|-----3-------0-3--------|
G|--*-2-2--*-1-2----------|
D|--4-0-2--4-2-0----------|
A|--4----0--4-2-----------|
E|--2--------2-0----------|

E|------------------------------------|
B|-5~~~~~~--5-3-----5-3---------------|
G|-------------------6-2-----6--------|
D|------------------------------------|
A|------------------------------------|
E|------------------------------------|

E|-----------------|
B|----*---*--------|
G|-*-7-*-7---------|
D|-4-7-4-7---------|
A|-4-5-4-5---------|
E|-2----2----------|

E|-----------------|
B|---------*-------|
G|-*-*-*-7---------|
D|-7-2-4-7---------|
A|-7-2-4-5---------|
E|-5-0-2-----------|

Repete 1x riff 1
Repete 1x base 1
Repete 2x refrão

E|-----------*------------*----|
B|-*---*----| #-------*---#------
G -#---#----7-*----#---7-------
D|-7---2----7-7----2---7-------| 1x    base 2
A|-7---2----5-7----2---5-------|
É -5-2-0-2----5-2-0-2----------

E|--------------|
B|-*-*-*-*------|
G -#-#-#-7------
D|-7-2-4-7------| 2x    base 3
A|-7-2-4-5------|
E|-5-0-2--------|

Repete 1x refrão
Repete 2x intro

Guitarra 2

As 2 primeiras notas só a guitarra 1 que faz eu só coloquei pra não ficar vazio
H hammer on
         *         * *       *       
E|----2-------0-2-----2------0-2------|
B|----3-10---0-3-----3------0-3-------|
G|-*-2----*--1-2-*--2-2-*-1-2---------|
D|-4-0--7-4-2-0--4-0-2-4-2-0----------| 1x   intro
A|-4-------4-2----4----0-4-2----------|
E|-2-------2-0----2-------2-0---------|


E|-----------------------------------------------------------------------------|
B|----------5-----5-----5---5h7-5h7---------5-----5-----5---5h7-5h7----|
G|-6~~~~---6-6--6-6--6------------6~~~~--6-6---6-6---6-6h6-6h6---|
D|------------------------------------------------------------------------------| 1x     riff 1
A|------------------------------------------------------------------------------|
E|------------------------------------------------------------------------------|


E|-----------------------*-------|
B|----*--*----*--*-*-10----------|
G|-*-7-11-9-7-11-9---------------|
D|-4-7-----------------7---------| 1x     base 1
A|-4-5--9--7-5--9-7--------------|
E|-2-----------------------------|


E|---------------------------------------------------------------------------7----------|
B|--*-------*------*------------------------*--10~~---------9-9h10-10--10-9----|
G|-14-13-14-13-14-13------------------14------------7h9--9---------------------|
D|-----------------------------------------------------7h9----------------------------| refão
A|-12-11-12-11-12-11-12h14-12h14-12-----------------------------------------|
E|--------------------------------------------------------------------------------------|



Continuação do refrão
E|--------------------------7-----------------------------7----7---------|
B|-----------9| —9h10-10--10-9---------9--9h10-10--10--10-9----
G|------7h9--9-----------------------7h9--9---------------------------|
D|-7h9---------------------------7h9----------------------------------| 1x   refrão
A|------------------------------------------------------------------------|
E|------------------------------------------------------------------------|

Repete 1x riff 1
Repete 1x base1
Repete 1x refão

E|-------------------------------------------------------------------------------------------------|
B|------------------------------------------------3~~--------------------------------------------|
G|----------7----2-2-2-2-4-4-4-4-2~~------------------4-2----------2-2-2-2-4-4-4-4-2---|
D|-7---2---7---4-4-4-4-4-4-4-4--4~~---2h4------2h4----4-2~~-4-4-4-4-4-4-4-4--4--1x| base 2
A|-7---2---5-------------------------------------------------------------------------------------|
E|-5-2-0-2---------------------------------------------------------------------------------------|

Não faz nada a guitarra 2 só fica a guitarra 1 e vocal e depois entra

E|--------------------------------------------------------------------7---------------------------7-------|
B|-3-2-3-2-3-2-3-2-3-2-3-2-3-2-----10~~---------9-9h10-10--10-9---------9-9h10-10-10-9--|
G|---------------------------------------------------7h9-9----------------------7h9-9------------------|
D|----------------------------------------------7h9-------------------------7h9-------------------------|
A|---------------------------------------------------------------------------------------------------------|
E|---------------------------------------------------------------------------------------------------------|


E|------------------------7---7---------|
B|-----------9--9h10-10-10-10-9---------|
G|------7h9--9--------------------------|
D|-7h9----------------------------------| 1x  riff 2
A|--------------------------------------|
E|--------------------------------------|

As 2 primeiras notas só a guitarra 1 que faz
         *
E|----2--------------------------------*-----|
B|----3----------*--*-----*----*--*-10----*--|
G|-*-2-7h9-9h11-9-11-9-9h11-9----9h11-9--7---|
D|-4-0--------------------------------7------|
A|-4----5h7-7h9--7-9--7--7h9--7-----7h9--7-5-|
E|-2-----------------------------------------|

[Intro] F# D A F# E D 
        F# D A F# E D 

F#           D                     
E o que restou se não retratos teus
F#              D                    
Meus pés no chão e uma canção de adeus?

F#        D                   
Já não sei, por tanto tempo procurei
F#            D
Não foi por falta de avisar

A            E                     F#
Esqueça os meus, leve com você os seus
          D
Medos de nunca se encontrar
A            E                     F#
Esqueça os meus, leve com você os seus
          D
Medos de nunca se encontrar

F#                    D                           F#
Sempre ímpar e nunca par, hoje talvez eu não vá voltar
                     D         
Mas já não penso em desistir, aprenderemos a nos virar

F#        D                   
Já não sei, por tanto tempo procurei
F#            D
Não foi por falta de avisar

A            E                     F#
Esqueça os meus, leve com você os seus
          D
Medos de nunca se encontrar
A            E                     F#
Esqueça os meus, leve com você os seus
          D
Medos de nunca se encontrar

( A F# E D )

A            E                     F#
Esqueça os meus, leve com você os seus
          D
Medos de nunca se encontrar
A            E                     F#
Esqueça os meus, leve com você os seus
          D
Medos de nunca se encontrar

Otros videos de esta canción
    65 exhibiciones
    • Simplificar cifrado
      • ½ Tono
      • A
      • Bb
      • B
      • C
      • Db
      • D
      • Eb
      • E
      • F
      • F#
      • G
      • Ab
    • Agregar a la lista

    Afinação da cifra

    Afinador online

      Ops (: Contenido disponible solo en portugués.
      OK