Cifra Club

The Sick

Nothingface

Cifrado: Principal (guitarra y guitarra eléctrica)
tono: D
Dropped D but i use a 7 string

Tabbed by *   
all but the solo

-------------------------------------------------
-------------------------------------------------
-------------------------------------------------
-------------------------------------------------  
-----------4-------------------------------------pm
-----4-5-----5---4-5---4-5-2-4-------------------
---2-----2-----2-----2---------------------------

Fill  (im not sure but it sounds right)
-------------------------
-0-0-0-0-0-0-0-0---------
-2-2-2-2-2-2-2-2---------
-------------------------
-------------------------
-------------------------
-------------------------

Verse 1
---------------------------------------------------------------
---------------------------------------------------------------
---------------------------------------------------------------
------6---------6----------------------------------------------
----7-4-7-6---7-4-7-4-4----------------------------------------
-4/-5---5-4--4/-5---5-6-2-4------------------------------------
-2/----------2------------2------------------------------------

verse 2
---------------------------------------------------------------
---------------------------------------------------------------
---------------------------------------------------------------
---------------------------------------------------------------
---------4---------------4-------------------------------------
---5---4---5-4-2-----5-----5-4---------------------------------
-2---2-------------2---2---------------------------------------

Pre chorus
---------------------------------------------------------------
---------------------------------------------------------------
---------------------------------------------------------------
--6-6-6-6-6-6-6-6-5-5-5----------------------------------------
------------------------7-7-7-7--------------------------------
--4-4-4-4-4-4-4-4-3-3-3----------------------------------------
------------------------5-5-5-5--------------------------------

---------------------------------------------------------------
---------------------------------------------------------------
---------------------------------------------------------------
---------6-----------------------------------------------------
---6-7-7-4-7-6----6-7-7-6-4-6----------------------------------
-4-4-5-5---5-4--4-4-5-5-4-2-4----------------------------------
-2--------------2----------------------------------------------

Rhythm solo 1
---------------------------------------------------------------
---------------------------------------------------------------
---------------------------------------------------------------
---------------------------------------------------------------
---5-4-2----5-4-2----5-4----5-4-2----5-4-2----5-0--------------
-4-3-2-0--4-3-2-0--4-3-2--4-3-2-0--4-3-2-0--4-3-2--------------
-2--------2--------2------2--------2--------2------------------

Rhythm solo 2
---------------------------------------------------------------
---------------------------------------------------------------
---------------------------------------------------------------
--------------4/-6-XXX-----------------------------------------
-------4/-5-X-2/-4-XXX-----------------------------------------
-4-4-X-2/-3-X--------------------------------------------------
-2-2-X---------------------------------------------------------

                     

The kick ass outro
---------------------------------------------------------------
---------------------------------------------------------------
---------------------------------------------------------------
---------------------------------------------------------------
--4-4-4-4-4-4-4-4-3-3-3-------6-6-7-7-7-7-7-7-7-7--------------
--2-2-2-2-2-2-2-2-1-1-1-4-4-4-4-4-5-5-5-5-5-5-5-5-8-8-8-9-9-9--
------------------------2-2-2---------------------6-6-6-7-7-7--
  

---------------------------------------------------------------
---------------------------------------------------------------
---------------------------------------------------------------
---------------------------------------------------------------
-6-6-----------------7-7-7-------6-6---------------------------
-4-4-5-5-5-5-5-5-5-5-5-5-5-8-8-8-4-4---------------------------
-----3-3-3-3-3-3-3-3-------6-6-6-------------------------------

   


Composición de Bill Gaal / Chris Houck / Matt Holt / Nothingface / Tom Maxwell
7 vistas
    • ½ Tono
    • A
    • Bb
    • B
    • C
    • Db
    • D
    • Eb
    • E
    • F
    • F#
    • G
    • Ab
  • Agregar a la lista

    0 comentarios

    Ver todos los comentarios

    ¿Lograste tocar?

    0 Tocaron 0 Aún no

    ¡Graba un video tocando The Sick y envíanoslo!

    00:00 / 00:00
    Otros videos de esta canción
    Repetir Calidad Automático
    Otros videos de esta canción
    00:00 / 00:00
    Automático
    OK