Cifra Club

Vinde a Mim

Nova Voz

Cifrado: Principal (guitarra y guitarra eléctrica)
tono: F
        Intro: F9/A   Bb9       C9/E    F9   F9/A   Bb9 C/E F9
              E|-------------------------------------------
              B|-------------------------------------------
              G|----------3-2-0-2--2-----------------------
              D|---3-0-------------------3-0-2-3--2-0------
              A|-3--------------------3----------------3--0
              E|-------------------------------------------

   Dm9         Bb9      Dm9  F/C   Bb9
Quantas vezes te magoei Senhor, Feri teu coração  
    Dm9       Bb9       Dm9   F/C G9/B
Te neguei perante o mundo, desprezei a Tua cruz
   Bb9       Dm9
Mesmo assim eu posso crer no perdão 
   Gm9     Dm7    C7sus4
Ao ouvir Sua voz a dizer.

Coro:
    F9         C9
Vinde a Mim, eu nunca mudei
  Dm9        F9/C      Bb9
Como Pai Eu sempre estou a te esperar
     F9                C9
Dos teus erros não me lembro. Teus pecados perdoei
    Dm9           Bb9   Csus4   F9/A
Filho creia em mim pois me entreguei por ti.  

             Bb9           C/E     F9   F9/A   Bb9          C/E  F9
           E|-------------------------------------------------------
           B|-------------------------------------------------------
           G|---------------------------------------------------0-2-
           D|---0----2--3--2--0----------3---0-----2--3--2---3------
           A-3------------------3--0------3------------------------
           E|-------------------------------------------------------

  Dm9        Bb9        Dm9      F9/C   Bb9
Hoje venho te render Senhor. Entregar tudo o que sou
    Dm9      Bb9        Dm7  F/C  G/B
Da-me um novo e puro coração.Quero ser fiel a Ti 
    Bb9         Dm9            Gm9    Dm7     C7sus4
Se eu cair, posso confiar que me vês e ouvir Tua voz a dizer.
 
Coro:
    F9         Csus4 C
Vinde a Mim, eu nunca mudei
  Dm9         F9/C     Bb9
Como Pai Eu sempre estou a te esperar
     F9                C9
Dos teus erros não me lembro. Teus pecados perdoei,
    Dm9           Bb9    Csus4   F9
Filho creia em mim, pois me entreguei por ti.  
 Bb9             F9
E mesmo quando eu escolher me afastar de Ti
 Eb9       Bb9          Csus4  C
Eu clamo Senhor, ajuda-me a ouvir sua voz
    F9         Csus4 C
Vinde a Mim, eu nunca mudei

  Dm9         F9/C     Bb9
Como Pai Eu sempre estou a te esperar

    G9        Dsus4  D
Vinde a Mim, eu nunca mudei
  Em9         G9/D      C9
Como Pai Eu sempre estou a te esperar
     G9                Dsus     D
Dos teus erros não me lembro. Teus pecados perdoei
    Em9            C9       G9
Filho creia em mim pois me entreguei por ti.  
     Dsus4 D
Eu nunca mudei
  Em9        G9/D       C9
Como Pai Eu sempre estou a te esperar
     G9                Dsus4
Dos teus erros não me lembro. Teus pecados perdoei
    Em9           C9  D7sus4    G9    C9/E      G/D C9
Filho creia em mim pois me entreguei por ti...  
Em7        F9
Vinde a Mim eu me entreguei 
Em7        C9
Vinde a Mim eu me entreguei.
Em7        Dsus4   D
Vinde a Mim eu me entreguei 
Em9        C9
Vinde a Mim eu me entreguei por ti.
00:00 / 00:00
Otros videos de esta canción
Repetir
Otros videos de esta canción
Composición de Felipe Tonasso
Colaboración y revisión:
  • Caio Aguilhera
  • DIEGO SANTOS
328 vistas
    • ½ Tono
    • A
    • Bb
    • B
    • C
    • Db
    • D
    • Eb
    • E
    • F
    • F#
    • G
    • Ab
  • Agregar a la lista

    0 comentarios

    Ver todos los comentarios
    00:00 / 00:00
    OK