Cifra Club

Silente Adoração

Novo Tom

Cifrado: Principal (guitarra y guitarra eléctrica)
tono: Ab
Intro:
Riff
      Bbm                Ab         Bbm          Ab

E|-----7---9-------5---7------7---9--5---7--7-----9---5-7--|
B|----7--7--------5--5-------7--7--------5-----5-----------|
G|---7-----------6----------7------------6-----------------|
D|--9-----------7----------9-------------7-----------------|
A|---------------------------------------------------------|
E|---------------------------------------------------------|



Acordes da Estrofe
Riff
      Bbm                Ab

E|-----7---9-------5---7---|
B|----7--7--------5--5-----|
G|---7-----------6---------|
D|--9-----------7----------|
A|-------------------------|
E|-------------------------|

Bbm                Ab9       Db9
  Queria ter mais que palavras para oferecer
Bbm               Ab9          Db9               Ab/C
  Ou escrever as mais belas poesias pra cantar do amor (Ah como eu queria ser)
A#m     (Acorde Normal) D#9                Fm D#9  C#
  Queria ser mais do que sou só pra caber em mim a minha gratidão
Bbm              Eb9                Fm     Eb9   Db
  Mas aprendi que, para te fazer feliz mais vale a minha devoção
Bbm          (Db9)
  A vida em consagração

     Ab     Ab/C   Fm    Eb9    Db9
Quando a música terminar, vai começar o meu louvor
  Eb9          Fm    Fm7+        Fm7          Bbm
Canções de um coração que não se esconderão por trás de belas melodias
Db9      Eb9       Bbm  Ab Bbm Ab
Sincera, silente adoração

Bbm                  Ab      Db9
Queria ter as mais belas escolhas pra viver o amor
Bbm               Ab          Db9             Ab/C
E trazer em cada gesto em cada palavra dita a tua essência, ó Deus
Bbm             Eb9            Fm    Eb9  Db
É o silêncio de uma vida que revela a verdadeira gratidão
     Bbm        Eb9                   Fm  Eb9   Db
E eu aprendi que, para te fazer feliz mais vale a minha devoção
Bbm        (Db9)
A vida em consagração

     Ab     Ab/C   Fm    Eb9    Db9
Quando a música terminar, vai começar o meu louvor
  Eb9          Fm    Fm7+        Fm7          Bbm
Canções de um coração que não se esconderão por trás de belas melodias
Db9      Eb9      Fm  Fm7+ Fm7
Sincera, silente adoração
Db9      Eb9       Bbm Bbm Bbm Ab
Sincera, silente adoração

Riff Final

      Bbm                Ab

E|-----7---9---------7---9--------7---9---4---|
B|----7--7---------7--7---------7--7------4---|
G|---7------------7------------7----------5---|
D|--9------------9------------9-----------6---|
A|----------------------------------------6---|
E|----------------------------------------4---|
00:00 / 00:00
Otros videos de esta canción
Repetir
Otros videos de esta canción
Composición de Pedro Valença
Colaboración y revisión:
  • Raimundo Pedro
  • Keviin Louiis
  • Alan Kardec
60 vistas
    • ½ Tono
    • A
    • Bb
    • B
    • C
    • Db
    • D
    • Eb
    • E
    • F
    • F#
    • G
    • Ab
  • Agregar a la lista

    0 comentarios

    Ver todos los comentarios
    00:00 / 00:00
    OK