Cifra Club

Aprenda

I Want You Back

'NSYNC

Tab de bajo: Principal
(intro)
         (11x)
G |-----------|-------------|
D |*---------*|-------------|
A |*-r-e-s-t-*|-------------|
Eb|-----------|-r-r-r-0-0-2-|
     1 2 3 4    1 2 3 & 4 &

(verso 1 e 2)
G |--------------|-------------|-------------|----------------|
D |*-------------|-------------|-------------|---------------*|
A |*-------------|-------.-.---|-------------|-------.-.-----*|(3x)
Eb|--5-r-2-5-r-2-|-5-r-2-5-5-0-|-5-r-2-5-r-2-|-5-r-2-5-5-0-2--|
     1 2 & 3 4 &   1 2 & 3 & 4   1 2 & 3 4 &   1 2 & 3 & 4 &

G |-------------|-------------|-------------|---------------|
D |-------------|-------------|-------------|---------------|
A |-------------|-------.-.---|-------------|-------.-.-----|
Eb|-5-r-2-5-r-2-|-5-r-2-5-5-0-|-5-r-2-5-r-2-|-5-r-2-4-4-0-2-|
    1 2 & 3 4 &   1 2 & 3 & 4   1 2 & 3 4 &   1 2 & 3 & 4 &

(refrão)
G |-------------|-----------|-------------|---------|-------------|
D |-------------|-----------|-------------|---------|-------------|
A |-------------|-----.-.---|-------------|---------|-------------|
Eb|-1-r-1-1-r-1-|-0-r-0-0-4-|-5-r-5-5-r-4-|-2-r-r-2-|-1-r-1-1-r-1-|
    1 2 & 3 4 &   1 2 3 & 4   1 2 & 3 4 &   1 2 3 4   1 2 & 3 4 &

G |---------|---------|---------|---------|-------------|
D |---------|---------|---------|---------|-------------|
A |---------|-r-e-s-t-|-r-e-s-t-|-r-e-s-t-|-------------|
Eb|-3-r-r-r-|---------|---------|---------|-r-r-r-0-0-2-|
    1 2 3 4   1 2 3 4   1 2 3 4   1 2 3 4   1 2 3 & 4 &

(refrão 2)
G |-------------|-----------|-------------|---------|-------------|
D |-------------|-----------|-------------|---------|-------------|
A |-------------|-----.-.---|-------------|---------|-------------|
Eb|-1-r-1-1-r-1-|-0-r-0-0-4-|-5-r-5-5-r-4-|-2-r-r-2-|-1-r-1-1-r-1-|
    1 2 & 3 4 &   1 2 3 & 4   1 2 & 3 4 &   1 2 3 4   1 2 & 3 4 &

                    (8x)
G |---------|-----------|
D |---------|*---------*|
A |---------|*-r-e-s-t-*|
Eb|-3-r-r-r-|-----------|
    1 2 3 4    1 2 3 4

        (8x)
|-----------|-----|
|*---------*|-----|
|*-r-e-s-t-*|-r-r-|
|-----------|-----|
   1 2 3 4    1 2

(final)
G |--------------|-----------|-------------|---------|-------------|
D |*-------------|-----------|-------------|---------|-------------|
A |*-------------|-----.-.---|-------------|---------|-------------|
Eb|--1-r-1-1-r-1-|-0-r-0-0-4-|-5-r-5-5-r-4-|-2-r-r-2-|-1-r-1-1-r-1-|
     1 2 & 3 4 &   1 2 3 & 4   1 2 & 3 4 &   1 2 3 4   1 2 & 3 4 &
     _____         _____         _____
    |1.           |2.           |3.
G |--------------|-------------|---------|---------|
D |-------------*|------------*|---------|---------|
A |-------------*|------------*|---------|---------|
Eb|-3-r-3-3-3-5--|-3-r-3-3-r-3-|-3-r-r-r-|-5-------|
    1 2 & 3 & 4    1 2 & 3 4 &   1 2 3 4   1 2 3 4
Composição de Denniz Pop / Max Martin
Colaboración y revision:
  • Jefferson Sousa
70 reproducciones

0 comentarios

Ver todos os comentários

¿Conseguiste tocar?

0 Tocaram 0 Ainda não

Grave um vídeo tocando I Want You Back e nos envie!

00:00 / 00:00
outros vídeos desta música
repetir qualidade Automático
Outros vídeos desta música
00:00 / 00:00
Automático
OK