Cifra Club

Aprenda

Tearing Up My Heart

'NSYNC

Tablatura: Principal (guitarra)
tono: C
-3-1-0---0-----------3-1-0---0------------------0-1-0-1-0---0-------------------|
-------3-----1-3-3---------3------1-3-3-1-0-1-3-----------0---3--3-1----0-1-3-3-|
0----------2-------0------------2-------------------------------------2---------|
--------------------------------------------------------------------------------|
--------------------------------------------------------------------------------|
--------------------------------------------------------------------------------|

------------------------------------------------------|
------------------------------------------------------|
------------------------------------------------------|
------------------------------------------------------|
-0-0---0--0-0--2---0--0-0---0--0-0---0----------------|
-----3-------3---3--------3--------3------------------|

-----0---------------0--------0-------------------0---------------------------------------------------------0-1-0---|
-1-3-------3-3-3-1-3---3-1-13-------3-3-1-0-3-3-3---3-1-0-1-1----0-1---0-1-1-1-1-0-1----0-1-1-0-3-1---0-1-1-------3-|
-------2-2----------------------2-2----------------------------2-----2----------------2-------------2---------------|
--------------------------------------------------------------------------------------------------------------------|
--------------------------------------------------------------------------------------------------------------------|
--------------------------------------------------------------------------------------------------------------------|

-3-1-0---0-----------3-1-0---0------------------0-1-0-1-0---0-------------------|
-------3-----1-3-3---------3------1-3-3-1-0-1-3-----------0---3--3-1----0-1-3-3-|
0----------2-------0------------2-------------------------------------2---------|
--------------------------------------------------------------------------------|
--------------------------------------------------------------------------------|
--------------------------------------------------------------------------------|

0-0-0-0-0----0-0-0-0-0----------------0-1-0-----0-------------|
----------3-3---------3-3-1-0---0--1-3------3-3---1---0-1-3-3-|
------------------------------2---------------------2---------|
--------------------------------------------------------------|
--------------------------------------------------------------|
--------------------------------------------------------------|
then go back to beginning
47 reproducciones
    • ½ Tono
    • A
    • Bb
    • B
    • C
    • Db
    • D
    • Eb
    • E
    • F
    • F#
    • G
    • Ab
  • Adicionar à lista

    0 comentarios

    Ver todos os comentários

    ¿Conseguiste tocar?

    1 Tocaram 0 Ainda não

    Grave um vídeo tocando Tearing Up My Heart e nos envie!

    00:00 / 00:00
    outros vídeos desta música
    repetir qualidade Automático
    Outros vídeos desta música
    00:00 / 00:00
    Automático
    OK