Cifra Club

Yo te voy a amar

'NSYNC

Cifrado: Principal (guitarra y guitarra eléctrica)
tono: D
                  E A D G B E

p: es igual al "h" solo que descendente... lol

**Intro:

   Em        C#m           D
E|--------2-----------------0-2-3--2h3p2-0------------|
B|------3---------5-----3-3-------------------3-3s7---|
G|----4---------6-------------------------------------|
D|------------6---------------------------------------|
A|----------------------------------------------------|
E|----------------------------------------------------|

E|------------------------------------|
B|----3-3s5----3-2h3p2-0--------------|
G|--2---------------------------2s4---|
D|---------------------------0--------|
A|------------------------------------|
E|------------------------------------|

**Verso 1:


E|---------------------------------2--|
B|----------5---------------3---------|
G|----4---2-----------4-6-------4-----|
D|------2---------------------4-------|
A|------------------------------------|
E|------------------------------------|
           Cuando...

E|-----------------------------|
B|----------------------3-----2|
G|--4-2-2---0--4------------4--| (2 veces) Luego:
D|--------0---------------4----|
A|-----------------------------|
E|-----------------------------|

E|--------------------------------------------------------------|
B|----------------------10--------------------------------------|
G|-----10/11------8/9-----------11--------------10/11----8/9----|
D|------------------------------------12------------------------|
A|--------------------------------------------------------------|
E|--------------------------------------------------------------|
..Abrazaré...olvidar...lo que te....sufrir.....caer...junto a mí

E|---------------|
B|---------------|
G|--7-7-6h7p6----|
D|------------9-7|
A|---------------|
E|---------------|

 A2                Bm7
Cuando sientas tristeza
G(9)          Asus A
que no puedas calmar
 A2              Bm7
cuando haya un vacío
G(9)          Asus A
que no puedas llenar


Em7
te abrazaré
A7
te haré olvidar
D         A/C#    Bm7
Lo que te hizo sufrir
  Em7
No vas a caer
   Gm6              Asus   Asus A
mientras estés junto a mi


**Coro:

 D
Si siente frío
    A
tu corazón
Bm7                   G        D/A
Seré tu abrigo, tu ilusión
                  A
Hasta ya no respirar
      Gmaj9
Yo te voy a amar
      D
Yo te voy a amar

**Verso 2:

A2               Bm7
Yo siempre te he amado
G(9)         Asus  A
Y amor yo estaré
A2            Bm7
por siempre a tu lado ooh
G(9)           Asus  A
nunca me alejaré  eeeeeh
Em7
Prometo mi amor
A7
te juro ante Dios (te juro ante Dios)
D         A/C#     Bm7
Nunca te voy a faltar
Em7
tu corazón
Gm6               Asus  A
no volverá a lloraaaaaaaarr

D
Si siente frío (si siente frío)
A
tu corazón (tu corazón oon)
Bm7                G
Seré tu abrigo tu ilusión  oohh
 D/A            A
Hasta ya no respirar
      Gmaj9
yo te voy a amar
                D
yo te voy a amaaaaar

**Puente:

Em7          A
Sigo muriendo por ti iiii
Em7             A
Yo te quiero así
   D      A            G
sin tu amoooor (en mi vida) mi vida
       Em7           Asus  A
No se como podré yo vivir


**Coro: (ahora con diferentes acordes):
E
Si siente frío (si siente un frío)
B
Tu corazón (tu corazón)
C#m7              A
Seré tu abrigo, tu ilusión (tu ilusióoonn)
E/B              B
Hasta ya no respirar
          A
yo te vooy a amar aaaahh
E
Si no te amaría
  B
No viviré (te iventaré)
    C#m7            A
Si no canto como te voy a querer  [ohhhhh]
E/B              B
Hasta ya no respirar
          Amaj9
yo te voy a amar

**Final:

E                B
Hasta ya no respirar
          Amaj9
yo te voy a amar
          E         A/E   E   A/E  E
yo te voy a amaaaaaar----------- (uhhh)
00:00 / 00:00
Otros videos de esta canción
Repetir
Otros videos de esta canción
Composición de N'sync
31 vistas
    • ½ Tono
    • A
    • Bb
    • B
    • C
    • Db
    • D
    • Eb
    • E
    • F
    • F#
    • G
    • Ab
  • Agregar a la lista

    0 comentarios

    Ver todos los comentarios

    ¿Lograste tocar?

    0 Tocaron 0 Aún no

    ¡Graba un video tocando Yo te voy a amar y envíanoslo!

    00:00 / 00:00
    OK