Cifra Club

Daqui Pra Frente

Nx Zero

Cifrado: Principal (guitarra y guitarra eléctrica)
tono: E
[Intro]

Parte 1 de 3

E|----------------------------------------------|
B|-8-----------3-----4--3-------------3-----4---|
G|---5-------5-----5------3---3-----3-----5-----|
D|-----5---5-----5----------5-----5-----5-------|
A|----------------------------------------------|
E|----------------------------------------------|

Parte 2 de 3

E|----------------------------------------------|
B|-8-------------3-----4------------------------|
G|---5---5-----5-----5--------------------------|
D|-----5-----5-----5----------------------------|
A|----------------------------------------------|
E|----------------------------------------------|

Parte 3 de 3

E|----------------------------------------------|
B|-----3-------3-------3-------3----------------|
G|---5---5---5---5---5---5---5---5--------------|
D|-5-------5-------5-------5--------------------|
A|----------------------------------------------|
E|----------------------------------------------|

[Primeira Parte]

C5                  Bb5/D  Eb5       Bb5/D
  Estou aqui pra dizer que eu jamais
Ab5
  Imaginei te ver sofrendo assim
C5
  Te ver chorar
       Bb5/D  Eb5           Bb5/D
Vai fazer sofrer ainda mais
Ab5
  Estou aqui para dizer que eu jamais

[Pré-Refrão]

Bb5
  Quis te ver assim
C5
  Escrever aqui
Fm5              Ab5
  Tudo que senti

[Refrão]

              Eb5
Mais espero que
Daqui pra frente
           Bb5
Tudo se renove para nos dois
              Fm5                           Ab5
Nossas vidas são tão diferentes viva agora tudo que sonhou
             Eb5
Muita coisa ainda está por vir
             Bb5
Muita coisa ainda vai mudar
            Fm5                Ab5
Eu espero que daqui pra frente

E|----------------------------------------------------|
B|-----3-------3-------4-------4----------------------|
G|---5---5---5---5---5---5---5---5--------------------|
D|-5-------5-------5-------5--------------------------|
A|----------------------------------------------------|
E|----------------------------------------------------|

[Segunda Parte]

C5                  Bb5/D   Eb5    Bb5/D
  Estou aqui pra dizer seu coração
Ab5
  Vai te mostrar exatamente pra onde ir
C5                    Bb5/D  Eb5                 Bb5/D  Ab5
  Que temos muito o que   viver enganar o tempo não da mais
Estou aqui pra dizer que eu jamais

[Pré-Refrão]

Bb5
  Quis te ver assim
C5
  Escrever aqui
Fm5              Ab5
  Tudo que senti

[Refrão]

              Eb5
Mais espero que
Daqui pra frente
           Bb5
Tudo se renove para nos dois
              Fm5                           Ab5
Nossas vidas são tão diferentes viva agora tudo que sonhou
             Eb5
Muita coisa ainda está por vir
             Bb5
Muita coisa ainda vai mudar
            Fm5                Ab5
Eu espero que daqui pra frente

[Ponte]

                 Fm5                 Gm5
Eu sigo o meu caminho e você siga o seu
                Ab5
E acho que isso é bem mais forte que eu
             Fm5
Tive minha chance
                   Gm5               Ab5        Bb5
E não sobrou mais nada, que possa fazer você ficar

[Refrão]

              Eb
Mais espero que
Daqui pra frente
           Bb
Tudo se renove para nos dois
              Fm                            Ab
Nossas vidas são tão diferentes viva agora tudo que sonhou
             Eb
Muita coisa ainda está por vir
             Bb
Muita coisa ainda vai mudar
             Fm          Abm
Esse é meu preço pra deixar você ir
00:00 / 00:00
Otros videos de esta canción
Repetir
Otros videos de esta canción
Composición de Di Ferrero / Gee Rocha
1.167 vistas
    • ½ Tono
    • A
    • Bb
    • B
    • C
    • Db
    • D
    • Eb
    • E
    • F
    • F#
    • G
    • Ab
  • Agregar a la lista

    0 comentarios

    Ver todos los comentarios

    ¿Lograste tocar?

    29 Tocaron 0 Aún no

    ¡Graba un video tocando Daqui Pra Frente y envíanoslo!

    00:00 / 00:00
    OK