Cifra Club

Aprenda

Razões e Emoções

Nx Zero

Tablatura: Principal (guitarra)
Tom: Eb (con acordes en la forma de E) Afinação: Eb Ab Db Gb Bb Eb
Introdução:

E5  B11/D# C#m7  B4

Solo:

Parte 1

E|----------------------------------------------------|
B|-7---7---7---7------7---7---7---7-------------------|
G|---9---9---9---9------9---9---9---9-----------------|
D|----------------------------------------------------|
A|----------------------------------------------------|
E|----------------------------------------------------|

Parte 2

E|----------------------------------------------------|
B|-7---7---7---7---10---10---9---9--------------------|
G|---9---9---9---9----9----9---9---9------------------| (3x)
D|----------------------------------------------------|
A|----------------------------------------------------|
E|----------------------------------------------------|

Repete Parte 1

E|----------------------------------------------------|
B|-7---7---7---7------7---7---7---7-------------------|
G|---9---9---9---9------9---9---9---9-----------------|
D|----------------------------------------------------|
A|----------------------------------------------------|
E|----------------------------------------------------|

Primeira Parte:

 E5                    B11/D#
Dizer o que eu posso dizer
                    C#m7
Se estou cantando agora pra você
              B4
Ouvir com outra pessoa

Segunda Parte:

E5
  É que as vezes acho
         B11/D#
Que não sou o melhor pra você
C#m7                         B4
  Mas as vezes acho que poderíamos ser
                  F#4(7)
O melhor pra nós dois
                 E9/G#  A5(9)
Só quero que saiba

Refrão:

C#m7                A5(9)
Entre razões e emoções a saída
E        B4
É fazer valer a pena
C#m7            A5(9)
Se não agora depois não importa
E        B4
Por você posso esperar

Repete Intro a partir da Parte 2 do Solo:

Parte 2

E|----------------------------------------------------|
B|-7---7---7---7---10---10---9---9--------------------|
G|---9---9---9---9----9----9---9---9------------------| (3x)
D|----------------------------------------------------|
A|----------------------------------------------------|
E|----------------------------------------------------|

Repete Parte 1

E|----------------------------------------------------|
B|-7---7---7---7------7---7---7---7-------------------|
G|---9---9---9---9------9---9---9---9-----------------|
D|----------------------------------------------------|
A|----------------------------------------------------|
E|----------------------------------------------------|

Repete a Primeira Parte:

 E5                    B11/D#
Sentir o que eu posso sentir
                    C#m7
Se em um segundo tudo acabar
            B4
Não vou ter    como fugir

Segunda Parte:

E5
  É que as vezes acho
         B11/D#
Que não sou o melhor pra você
C#m7                         B4
  Mas as vezes acho que poderíamos ser
                  F#4(7)
O melhor pra nós dois
                 E9/G#  A5(9)
Só quero que saiba

Refrão Dedilhado:

Parte 1

C#m7               A7M(9)
E|-------0------------------0---------------|
B|---------0------------------0-------------|
G|---6-------6----------6-------6-----------|
D|-----6-------6----------6-------6---------|
A|-4------------------0---------------------|
E|------------------------------------------|

Parte 2

E5                 B4
E|-------0------------------0---------------|
B|---------0------------------0-------------|
G|---9-------9----------4-------4-----------|
D|-----9-----9------------4-----4-----------|
A|-7------------------2---------------------|
E|------------------------------------------|

C#m7               A7M(9)
Entre razões e emoções a saída
E5       B4
É fazer valer a pena
 C#m7           A7M(9)
Se não agora depois não importa
 E5       B4        A5(9)
Por você posso esperar

Posso Esperar

Refrão Final:

C#m7               A5(9)
Entre razões e emoções a saída
E        B4
É fazer valer a pena
 C#m7           A5(9)
Se não agora depois não importa
 E        B4
Por você posso esperar

C#m7               A5(9)
Entre razões e emoções a saída
E        B4
É fazer valer a pena
 C#m7           A5(9)
Se não agora depois não importa
 E        B4        A5(9)
Por você posso esperar
           A5(9)
Posso esperar
           A5(9)
Posso esperar
           A5(9)
Posso esperar

Dedilhado:

E|---------0--------------0---------------------------|
B|---0-------0--------------0-------------------------|
G|-----8-------8-8\6--6-------6--6/-------------------|
D|-9-----9-----9-9\7----7-----7--7/-------------------|
A|----------------------------------------------------|
E|----------------------------------------------------|

E|---------0--------------0------0--------------------|
B|---0-------0--------------0----0--------------------|
G|-----8-------8-8\6--6-------6--6--------------------|
D|-9-----9-----9-9\7----7-----7--7--------------------|
A|----------------------------------------------------|
E|----------------------------------------------------|
Compositor Di Ferrero / Gee Rocha 3.670 reproducciones
  • Simplificar cifra
    • ½ Tom
    • A
    • Bb
    • B
    • C
    • Db
    • D
    • Eb
    • E
    • F
    • F#
    • G
    • Ab
  • Adicionar à lista

    0 comentarios

    Mostrar mais comentários

    ¿Conseguiste tocar?

    138 Tocaron 4 Ainda não

    Grave um vídeo tocando Razões e Emoções e mande pra gente!

    00:00 / 00:00
    outros vídeos desta música
    repetir qualidade Automático
    Outros vídeos desta música
    00:00 / 00:00
    Automático
    Capítulos
    • Início
    • Afinação
    • Tocando a música
    • Acordes da Introdução
    • Tocando Introdução
    • Ensinando Solo da Introdução
    • Ensinando Ritmo da Introdução
    • Tocando Primeira Parte
    • Ensinando Ritmo da Primeira Parte
    • Acordes da Segunda Parte
    • Tocando Segunda Parte
    • Ensinando Ritmo da Segunda Parte
    • Acorde novo do Refrão
    • Tocando Refrão
    • Ensinando Ritmo do Refrão
    • Tocando Repetições
    • Ensinando Dedilhado do Refrão
    • Tocando Final
    • Ensinando Ritmo do Final
    • Ensinando Riff do Final
    • Encerramento
    OK