Cifra Club

Muito Romântico

O Círculo

Cifrado: Principal (guitarra y guitarra eléctrica)
tono: G
Intro:  Riff  ( Em7 )

Riff de intro:

e|-----------------------------------------------------|
B|-------------------------------8---------------------| 
G|-------------------------------7---------------------|     
D|-------------------------------5---------------------|
A|---2-2--5--2--8---5--7--5--2---7---------------------|
E|---0-0--3--0--6---3--5--3--0-------------------------|
   
     E E  G  E  Bb  G  A  G  E   Em7 (acorde aberto)



e|-----------------------------------------------------|
B|----------------------------------8------------------| 
G|----------------------------------7------------------|     
D|------------------------6--7--8---5------------------|
A|---2-2--5--2--8---5--7--4--5--6---7------------------|
E|---0-0--3--0--6---3--5-------------------------------|
   
     E E  G  E  Bb  G  A  C# D  D#  Em7 (acorde aberto)



Em7                          Am
Não tenho nada com isso nem vem falar
D         D#°                    Em7
Eu não consigo entender sua lógica
Em7                          Am
Minha palavra cantada pode espantar
D          D#°               Em7
E aos seus ouvidos parecer exótica
G                             C7+           C#°
Mas acontece que eu não posso me deixar
                                 G     D/F#                Em7
Levar por um papo que já não deu,       já não deu
                                Am
Acho que nada restou pra guardar ou lembrar
D            D#°                     Em7    Intro
Do muito ou pouco que houve entre você e eu

Em7                      Am
Nenhuma força virá me fazer calar
D       D#°                Em7
Faço no tempo soar minha sílaba
Em7                            Am
Canto somente o que pede pra se cantar
D         D#°                Em7
Sou o que soa, eu não douro pílula
G                                 C7+            C#°
Tudo que eu quero é um acorde perfeito maior
                          G   D/F#             Em7
Com todo mundo podendo brilhar num cântico
                               Am
Canto somente o que não pode mais se calar
D         D#°                   Em7    
Noutras palavras sou muito romântico 

G                             Am
Canto somente o que não pode mais se calar
D         D#°                   Em7       Intro
Noutras palavras sou muito romântico
00:00 / 00:00
Otros videos de esta canción
Repetir
Otros videos de esta canción
Composición de Caetano Veloso
Colaboración y revisión:
  • Fabricio Magalhães
  • Marlon Freitas
109 vistas
    • ½ Tono
    • A
    • Bb
    • B
    • C
    • Db
    • D
    • Eb
    • E
    • F
    • F#
    • G
    • Ab
  • Agregar a la lista

    0 comentarios

    Ver todos los comentarios
    00:00 / 00:00
    OK