Cifra Club

Rosa Maria

O Círculo

Cifrado: Principal (guitarra y guitarra eléctrica)
tono: D
E|-------------------------------------------------------------------------|
B|-----------------9----9~10--12--10----10p12--14--14--12--10--9-----------|
G|11----11~13--14-------------------------------------------------11-------|
D|-------------------------------------------------------------------------|
A|-------------------------------------------------------------------------|
E|-------------------------------------------------------------------------|

E|-----------------------------------12~11--9--7-------|
B|-------------9----9~10--12--12~14--------------------|
G|--11~13--14------------------------------------------|
D|-----------------------------------------------------|
A|-----------------------------------------------------|
E|-----------------------------------------------------|

Intro: F#m7  C#m7  D7+  D/E

F#m7               C#m7
Ela se cobriu de espinhos pra
         D7+
Enganar a dor foi mãe demais
 Bm7   C#m7   D7+   D/E
Até mesmo antes de ser mulher
  F#m7      C#m7        D7+
Rosa maria a flor se amarela for
 Bm7          C#m7      D7+
Salgarei o meu sorriso por um
      D/E
momento bom
F#m7               C#m7
Até Por que não da pra ser viver
D7+ D/E
Sem ser feliz e amar se entregar

a uma paixão
F#m7               C#m7
Até Por que não da pra ser viver
 Bm7   C#m7   D7+   D/E
Sem ser feliz e amar se entregar
D/E
a uma paixão

F#m7            C#m7       D7+          D/E
Se só as Rosas choram, por que sofrem as Marias?
F#m7            C#m7       D7+          D/E
Se só as Rosas choram, por que sofrem as Marias?

    F#m7          C#m7           D7+
Juntos a mesa uma rosa branca paz floriu,
      D/E
Pois a amor demais com certeza
    F#m7          C#m7           D7+
Mesmo tudo que se tem pra comer é um prato quase vazio, é
eu sei
     F#m7                C#m7
E avermelhar a flor em nome do sentimento
     Bm7         C#m7           D7+     D/E
Qual cor teria a rosa se eu chorasse sofrimento
       F#m7          C#m7
Até Por que não da pra ser viver
         D7+             D/E
Sem ser feliz e amar se entregar

a uma paixão
     F#m7             C#m7
Até Por que não da pra ser viver
    Bm7      C#m7       D7+
Sem ser feliz e amar se entregar
   D/E
a uma paixão

F#m7            C#m7       D7+          D/E
Se só as Rosas choram, por que sofrem as Marias?
F#m7            C#m7       D7+          D/E
Se só as Rosas choram, por que sofrem as Marias?

00:00 / 00:00
Otros videos de esta canción
Repetir
Otros videos de esta canción
Composición de Roy
Colaboración y revisión:
  • Matheus Carneiro
  • Neto
59 vistas
    • ½ Tono
    • A
    • Bb
    • B
    • C
    • Db
    • D
    • Eb
    • E
    • F
    • F#
    • G
    • Ab
  • Agregar a la lista

    0 comentarios

    Ver todos los comentarios
    00:00 / 00:00
    OK