Cifra Club

7 Vezes

O Rappa

Cifrado: Principal (guitarra y guitarra eléctrica)
tono: Cm
[Intro] Cm  Ab
        Cm  Ab
        Cm  Ab
        Cm  Ab

      Cm              Ab
E|----------------------------------------|
B|----------------------------------------|
G|-------3----------------3---------------|
D|-----5---5p3-5--------5---5-3-5---------|
A|-3-3------------------------------------|
E|------------------4-4-------------------|

      Cm              Ab
E|----------------------------------------|
B|----------------------------------------|
G|-------3----------------3---------------|
D|-----5---5p3-5--------5---5-3-5---------|
A|-3-3------------------------------------|
E|------------------4-4-------------------|

[Primeira Parte]

                  Cm              Ab
Deixo o mundo avisado de teu nome
                 Cm           Ab
Sete vezes escrevi o seu nome
                  Cm              Ab
Deixo o mundo avisado de teu nome
                 Cm                          Ab
Num mundo assim bem grande, sete vezes escrevi seu nome
                 Cm                    Ab
Num mundo assim bem grande, sete vezes escrevi

[Segunda Parte]

         Cm
Será que é, é
 Bb                      Fm
Fato necessário, diz que é
Bb                     Cm  Bb
Insistir e repetir que é
          Fm
Todas as portas abrir

         Cm
Será que é, é
 Bb                      Fm
Fato necessário, diz que é
Bb                     Cm  Bb
Insistir e repetir que é
          Fm
Todas as portas vão se abrir

( Cm  Ab )
( Cm  Ab )

      Cm              Ab
E|----------------------------------------|
B|----------------------------------------|
G|-------3----------------3---------------|
D|-----5---5p3-5--------5---5-3-5---------|
A|-3-3------------------------------------|
E|------------------4-4-------------------|

      Cm              Ab
E|----------------------------------------|
B|----------------------------------------|
G|-------3----------------3---------------|
D|-----5---5p3-5--------5---5-3-5---------|
A|-3-3------------------------------------|
E|------------------4-4-------------------|

[Refrão]

 Cm     Ab
Castigo,  será que é obrigatório?
     Cm        Ab
Estudar pra ter vocabulário, é obrigatório?
 Cm     Ab
Castigo,  será que é obrigatório?
     Cm        Ab
Estudar pra ter vocabulário, é obrigatório?

Fm         Bb       Cm
  Será que é preciso pensar
    Fm          Bb       Cm
Engraçado, andar pra trás, ao contrário
 Fm     Bb      Cm
Colorir   tudo de amor
      Fm             Bb        Cm
Inventar um novo jeito de brincar, é

          Fm
Saber perder, é
          Bb
Saber perder, é
          Cm
Saber perder, é

Alguma coisa pra sobreviver

          Fm
Saber perder, é
          Bb
Saber perder, é
          Cm
Saber perder, é

Alguma coisa pra sobreviver

          Fm
Saber perder, é, é
          Bb
Saber perder, é, é
          Cm
Saber perder, é, é

Alguma coisa pra sobreviver

          Fm
Saber perder, é
        Bb                 Cm
Alguma coisa, alguma coisa


[Primeira Parte]

                  Cm              Ab
Deixo o mundo avisado de teu nome
                 Cm           Ab
Sete vezes escrevi o seu nome
                  Cm              Ab
Deixo o mundo avisado de teu nome
                 Cm                          Ab
Num mundo assim bem grande, sete vezes escrevi seu nome
                 Cm                    Ab
Num mundo assim bem grande, sete vezes escrevi

[Segunda Parte]

         Cm
Será que é, é
 Bb                      Fm
Fato necessário, diz que é
Bb                     Cm  Bb
Insistir e repetir que é
          Fm
Todas as portas abrir

         Cm
Será que é, é
 Bb                      Fm
Fato necessário, diz que é
Bb                     Cm  Bb
Insistir e repetir que é
          Fm
Todas as portas vão se abrir

[Refrão]

 Cm     Ab
Castigo,  será que é obrigatório?
     Cm        Ab
Estudar pra ter vocabulário, é obrigatório?
 Cm     Ab
Castigo,  será que é obrigatório?
     Cm        Ab
Estudar pra ter vocabulário, é obrigatório?

( Cm  Bb  Fm  Bb )
( Cm  Bb  Fm )

[Final] Cm  Ab
        Cm  Ab
        Cm  Ab
        Cm  Ab

      Cm              Ab
E|----------------------------------------|
B|----------------------------------------|
G|-------3----------------3---------------|
D|-----5---5p3-5--------5---5-3-5---------|
A|-3-3------------------------------------|
E|------------------4-4-------------------|

      Cm              Ab
E|----------------------------------------|
B|----------------------------------------|
G|-------3----------------3---------------|
D|-----5---5p3-5--------5---5-3-5---------|
A|-3-3------------------------------------|
E|------------------4-4-------------------|

      Cm              Ab
E|----------------------------------------|
B|----------------------------------------|
G|-------3----------------3---------------|
D|-----5---5p3-5--------5---5-3-5---------|
A|-3-3------------------------------------|
E|------------------4-4-------------------|

      Cm              Ab
E|----------------------------------------|
B|----------------------------------------|
G|-------3----------------3---------------|
D|-----5---5p3-5--------5---5-3-5---------|
A|-3-3------------------------------------|
E|------------------4-4-------------------|
Composición de Marcelo Lobato / Marcos Lobato
Colaboración y revisión:
  • Getúlio Vasconcelos
  • Humberto Silva
  • Gabriel Ayres
1.200 vistas
    • ½ Tono
    • Am
    • Bbm
    • Bm
    • Cm
    • C#m
    • Dm
    • Ebm
    • Em
    • Fm
    • F#m
    • Gm
    • G#m
  • Agregar a la lista

    0 comentarios

    Ver todos los comentarios
    00:00 / 00:00
    Outros vídeos desta música
    Repetir Calidad Automático
    Outros vídeos desta música
    00:00 / 00:00
    Automático
    OK