Cifra Club

Dívida

O Rappa

Cifrado: Principal (guitarra y guitarra eléctrica)
tono: C
(Dm7  Gm  C  Dm7 )
Um homem com palavra é um homem da verdade
É requisito básico pra personalidade
Não importa a idade a cidade ou a nação
Respeito é herança da civilização

       ( Dm7  G7  C  Dm7 )
A taxa é zero o juro é alto vamos conversar
Ressarcimento pagamento vamos negociar (2x)

Aquela dívida de uns anos atrás
Está bem viva, vc não lembra mais(2x)

Não é só na Santana Leopoldina ou Parthenon
A honra é coisa muito séria em qualquer região
Aquele safado me deve, deve pra você também
E ainda por cima de tudo acha que tá tudo bem

       ( Dm7  G7  C  Dm7 )
A taxa é zero o juro é alto vamos conversar
Ressarcimento pagamento vamos negociar (2x)

Aquela dívida de uns anos atrás
Está bem viva, vc não lembra mais(2x)

(Solo Final)

A sua justificativa é o ensino escolar
Não aprendeu a dividir só quer multiplicar
Amigo chega de conversa já estou passando mal
Resolveremos esse cálculo no distrito policial

       ( Dm7  G7  C  Dm7 )
A taxa é zero o juro é alto vamos conversar
Ressarcimento pagamento vamos negociar (x2)

Aquela dívida de uns anos atrás
Está bem viva, vc não lembra mais (x2)

Solo:

E|-8/10-8-----------------8/10-8-------------|
B|---------10---8-6-10------------10---8-6---|
G|-----------------------------------------7-|
D|-------------------------------------------| 2x
A|-------------------------------------------|
E|-------------------------------------------|

E|--------------------------------------------------------------------|
B|-10-8-6---10-8-6---6-6-6-6-6-8-10--10-8-6---10-8-6---6-6-6-6-10-8-6-|
G|--------7--------7------------------------7--------7----------------|  2x
D|--------------------------------------------------------------------|
A|--------------------------------------------------------------------|
E|--------------------------------------------------------------------|
Compositor não encontrado.
Colaboración y revisión:
  • Sérgio Pereira
  • joao ferreira
  • Felipe Mardegan
360 vistas
    • ½ Tono
    • A
    • Bb
    • B
    • C
    • Db
    • D
    • Eb
    • E
    • F
    • F#
    • G
    • Ab
  • Agregar a la lista

    0 comentarios

    Ver todos los comentarios
    00:00 / 00:00
    Outros vídeos desta música
    Repetir Calidad Automático
    Outros vídeos desta música
    00:00 / 00:00
    Automático
    OK