Cifra Club

Intervalo Entre Carros

O Rappa

Cifrado: Principal (guitarra y guitarra eléctrica)
tono: Fm
[Intro] Fm7  Cm7  Fm7  Cm7
        Fm7  Cm7  Fm7  Cm7

        Fm7               Cm7             Fm7  
E|----------------------------------------------------|
B|----------------------------------------------------|
G|-8-10-10---8-8-10---8-8-5---8-8-5---8-8-10--8-10-12-|
D|-x-x--x----x-x-x----x-x-x---x-x-x---x-x-x---x--x-x--|
A|-6-8--8----6-6-8----6-6-3---6-6-3---6-6-8---6--8-10-|
E|----------------------------------------------------|

           Cm7
E|----------------------------------------------------|
B|----------------------------------------------------|
G|-10-8-10/5-5-3-5------------------------------------|
D|--x-x--x-x-x-x-x------------------------------------|
A|--8-6--8/3-3-1-3------------------------------------|
E|----------------------------------------------------|

        Fm7               Cm7             Fm7  
E|----------------------------------------------------|
B|----------------------------------------------------|
G|-8-10-10---8-8-10---8-8-5---8-8-5---8-8-10--8-10-12-|
D|-x-x--x----x-x-x----x-x-x---x-x-x---x-x-x---x--x-x--|
A|-6-8--8----6-6-8----6-6-3---6-6-3---6-6-8---6--8-10-|
E|----------------------------------------------------|

           Cm7
E|----------------------------------------------------|
B|----------------------------------------------------|
G|-10-8-10/5-5-3-5------------------------------------|
D|--x-x--x-x-x-x-x------------------------------------|
A|--8-6--8/3-3-1-3------------------------------------|
E|----------------------------------------------------|

[Primeira Parte]

        Fm7
Ela molhada espera o busu
       Cm7
Na calçada parada mas não passa nenhum
 Fm7
Só, sempre só
    Cm7
No ponto de ônibus

        Fm7
Ela se safa de qualquer um
        Cm7
Caô com ela não rola nenhum
 Fm7
Só, sempre só
    Cm7
No ponto de ônibus

        Fm7
Ela enfrenta como fez Ogum
             Cm7
Rainha do asfalto derruba um por um
 Fm7
Só, sempre só
    Cm7
No ponto de ônibus

[Segunda Parte]

         Fm7       Cm7
Não é bonita nem grande
            Fm7
No rosto escorre uma gota d'água
           Cm7
E a alma chora sangue

         Fm7       Cm7
Não é bonita nem grande
            Fm7
No rosto escorre uma gota d'água
           Cm7
E a alma chora sangue

[Refrão]

Fm7
Olho de viddro que te cobre
                Cm7
A ambição é pequena

Alegria de pobre

Fm7
Olho de viddro que te cobre
                Cm7
A ambição é pequena

Alegria de pobre

Fm7
Olho de viddro que te cobre
                Cm7
A ambição é pequena

Alegria de pobre

[Solo] Fm7  Cm7  Fm7  Cm7
       Fm7  Cm7  Fm7  Cm7

        Fm7               Cm7             Fm7  
E|----------------------------------------------------|
B|----------------------------------------------------|
G|-8-10-10---8-8-10---8-8-5---8-8-5---8-8-10--8-10-12-|
D|-x-x--x----x-x-x----x-x-x---x-x-x---x-x-x---x--x-x--|
A|-6-8--8----6-6-8----6-6-3---6-6-3---6-6-8---6--8-10-|
E|----------------------------------------------------|

           Cm7
E|----------------------------------------------------|
B|----------------------------------------------------|
G|-10-8-10/5-5-3-5------------------------------------|
D|--x-x--x-x-x-x-x------------------------------------|
A|--8-6--8/3-3-1-3------------------------------------|
E|----------------------------------------------------|

        Fm7               Cm7             Fm7  
E|----------------------------------------------------|
B|----------------------------------------------------|
G|-8-10-10---8-8-10---8-8-5---8-8-5---8-8-10--8-10-12-|
D|-x-x--x----x-x-x----x-x-x---x-x-x---x-x-x---x--x-x--|
A|-6-8--8----6-6-8----6-6-3---6-6-3---6-6-8---6--8-10-|
E|----------------------------------------------------|

           Cm7
E|----------------------------------------------------|
B|----------------------------------------------------|
G|-10-8-10/5-5-3-5------------------------------------|
D|--x-x--x-x-x-x-x------------------------------------|
A|--8-6--8/3-3-1-3------------------------------------|
E|----------------------------------------------------|

[Ponte]
 
       F7M
Uma menina mulher
        Db7M     Eb7
Que não anda de salto
         F7M
Sou seu cavaleiro e desde pequeno
      Db7M     Eb7
Por você planejava assalto

       F7M
Uma menina mulher
        Db7M     Eb7
Que não anda de salto
         F7M
Sou seu cavaleiro e desde pequeno
      Db7M     Eb7
Por você planejava assalto

( Fm7  Cm7  Fm7  Cm7 )

[Primeira Parte]

        Fm7
Ela molhada espera o busu
       Cm7
Na calçada parada mas não passa nenhum
 Fm7
Só, sempre só
    Cm7
No ponto de ônibus

        Fm7
Ela se safa de qualquer um
        Cm7
Caô com ela não rola nenhum
 Fm7
Só, sempre só
    Cm7
No ponto de ônibus

        Fm7
Ela enfrenta como fez Ogum
             Cm7
Rainha do asfalto derruba um por um
 Fm7
Só, sempre só
    Cm7
No ponto de ônibus

[Segunda Parte]

         Fm7       Cm7
Não é bonita nem grande
            Fm7
No rosto escorre uma gota d'água
           Cm7
E a alma chora sangue

         Fm7       Cm7
Não é bonita nem grande
            Fm7
No rosto escorre uma gota d'água
           Cm7
E a alma chora sangue

[Refrão]

Fm7
Olho de viddro que te cobre
                Cm7
A ambição é pequena

Alegria de pobre

Fm7
Olho de viddro que te cobre
                Cm7
A ambição é pequena

Alegria de pobre

Fm7
Olho de viddro que te cobre
                Cm7
A ambição é pequena

Alegria de pobre

[Solo] Fm7  Cm7  Fm7  Cm7
       Fm7  Cm7  Fm7  Cm7

        Fm7               Cm7             Fm7  
E|----------------------------------------------------|
B|----------------------------------------------------|
G|-8-10-10---8-8-10---8-8-5---8-8-5---8-8-10--8-10-12-|
D|-x-x--x----x-x-x----x-x-x---x-x-x---x-x-x---x--x-x--|
A|-6-8--8----6-6-8----6-6-3---6-6-3---6-6-8---6--8-10-|
E|----------------------------------------------------|

           Cm7
E|----------------------------------------------------|
B|----------------------------------------------------|
G|-10-8-10/5-5-3-5------------------------------------|
D|--x-x--x-x-x-x-x------------------------------------|
A|--8-6--8/3-3-1-3------------------------------------|
E|----------------------------------------------------|

        Fm7               Cm7             Fm7  
E|----------------------------------------------------|
B|----------------------------------------------------|
G|-8-10-10---8-8-10---8-8-5---8-8-5---8-8-10--8-10-12-|
D|-x-x--x----x-x-x----x-x-x---x-x-x---x-x-x---x--x-x--|
A|-6-8--8----6-6-8----6-6-3---6-6-3---6-6-8---6--8-10-|
E|----------------------------------------------------|

           Cm7
E|----------------------------------------------------|
B|----------------------------------------------------|
G|-10-8-10/5-5-3-5------------------------------------|
D|--x-x--x-x-x-x-x------------------------------------|
A|--8-6--8/3-3-1-3------------------------------------|
E|----------------------------------------------------|

[Ponte]
 
       F7M
Uma menina mulher
        Db7M     Eb7
Que não anda de salto
         F7M
Sou seu cavaleiro e desde pequeno
      Db7M     Eb7
Por você planejava assalto

       F7M
Uma menina mulher
        Db7M     Eb7
Que não anda de salto
         F7M
Sou seu cavaleiro e desde pequeno
      Db7M     Eb7          F7M
Por você planejava assalto  
      Db7M     Eb7          F7M
Por você planejava assalto

[Final] F7M  Db7M  Eb7
        F7M  Db7M  Eb7
Composición de O Rappa
660 vistas
    • ½ Tono
    • Am
    • Bbm
    • Bm
    • Cm
    • C#m
    • Dm
    • Ebm
    • Em
    • Fm
    • F#m
    • Gm
    • G#m
  • Agregar a la lista

    0 comentarios

    Ver todos los comentarios

    ¿Lograste tocar?

    6 Tocaron 6 Aún no

    ¡Graba un video tocando Intervalo Entre Carros y envíanoslo!

    00:00 / 00:00
    Outros vídeos desta música
    Repetir Calidad Automático
    Outros vídeos desta música
    00:00 / 00:00
    Automático
    OK