Cifra Club

Lado B Lado A

O Rappa

Cifrado: Principal (guitarra y guitarra eléctrica)
tono: E
riff*:

e|--------------------------------------|
B|--------------------------------------|
G|--------------------------------------|
D|--------------------------------------|
A|--------------------------------------|
E|-------2^4-4-4-4-4---x-4--2^4-4-4-----|
p.m.         . . . .     .

*riff distorcido utilizando efeito de delay+pedal de volume


guitarra de fundo:

      ^      ^  v  ^     ^ v ^    ^  v  ^  v
e|----11-----x-11-x-----11-x-x----11-x-11-11----|
B|----12-----x-12-x-----12-x-x----12-x-12-12----|
G|----13-----x-13-x-----13-x-x----13-x-13-13----|
D|----------------------------------------------|
A|----------------------------------------------|
E|----------------------------------------------|

*x = efeito percussivo (nota fantasma)


--------------------------------------------------------------------------------


|Riff 4x|

Se eles são Exu eu sou Yemanjá
Se eles matam o bicho eu tomo banho de mar 
Com o corpo fechado 
Ninguém vai me pegar 
Lado A lado B, lado B lado A 

|Riff|

No bê, a, ba da chapa quente 
Eu sou mais o Jorge bem 
Tocando bem alto no meu walkman 

|Riff|
Esperando o carnaval do ano que vem 
Não sei se o ano vai ser do mal 
Ou se vai ser do bem... 

|Riff|

O que te guarda a lei dos homens 
O que me guarda a lei de Deus 

Não abro mão da mitologia negra 
Para dizer, eu não pareço com você é...

         |Riff|
Há um despacho na esquina do futuro 
Com oferendas carimbadas todo dia 

        |Riff|
Eu vou chegar, pedir e agradecer 
Pois a vitória de um homem 
As vezes se esconde |Riff|
num gesto forte 
Que só ele pode ver 

           G#m *
Eu sou guerreiro, sou trabalhador 
        G#m *
E todo dia vou encarar 

          C#m
Com fé em Deus e na minha batalha 

 G#m 
Espero estar bem longe quando o rodo passar
   C#m
Espero estar bem longe quando tudo isso passar
Composición de Falcão / Lauro Farias / Marcelo Lobato / Marcelo Yuka / Xandão
721 vistas
    • ½ Tono
    • A
    • Bb
    • B
    • C
    • Db
    • D
    • Eb
    • E
    • F
    • F#
    • G
    • Ab
  • Agregar a la lista

    0 comentarios

    Ver todos los comentarios

    ¿Lograste tocar?

    4 Tocaron 1 Aún no

    ¡Graba un video tocando Lado B Lado A y envíanoslo!

    00:00 / 00:00
    Outros vídeos desta música
    Repetir Calidad Automático
    Outros vídeos desta música
    00:00 / 00:00
    Automático
    OK