Cifra Club

O Homem Bomba

O Rappa

Cifrado: Principal (guitarra y guitarra eléctrica)
tono: C
Intro: 

Introdução      

e|--------------------------------------------------------------
B|--------------------------------------------------------------
G|--------------------------------------------------------------
D|--------------------------------------------------------------
A|----5-----5-7-5----------5-----5-7-5----------------5-7-5-----
E|-5-8---5-8------8-5---5-8---5-8-----8-5---5-8-5--5-8-----8-5--

A música inteira fica assim:

    Dm                       C
E|--5-x-x-5-x-x-5-x-x-x-5-5--3-3---|
B|--6-x-x-6-x-x-6-x-x-x-6-6--5-5---|
G|--7-x-x-7-x-x-7-x-x-x-7-7--5-5---|
D|--7-x-x-7-x-x-7-x-x-x-7-7--5-5---|
A|--5-x-x-5-x-x-5-x-x-x-5-5--3-3---|
E|---------------------------------|

Requebrando a consciência
Na fumaça das vaidades
humilhadas envenena as conclusões
como meu sangue nunca vai
nunca vai, vai virar vinho
no final do mês se acende o pavio
então

bum, bum, bum, o homem bomba
ataque
bum, bum, bum, o homem bomba
bum, bum, bum, o homem bomba

mas só com estrago vai dar pra ver
vai e vai dar e vai dar pra ver

em meio a salmos, alvos e contas
o homem bomba se esconde como um terrorista
sem uma reivindicação verbal
pronto para explodir ao menor sinal
então toca a buzina, toca baile funk,
toca o bumbo na garganta do
maracanã, eh!
incendiano um coração impregnado
que não divide violência e diversão
violência e diversão, violência
violência e diversão, violência

então

bum, bum, bum, o homem bomba
ataque
bum, bum, bum, o homem bomba
bum, bum, bum, o homem bomba

REPETE O SOLO DA INTRODUÇÃO E A MUSICA RECOMEÇA

DAE NO FINALZINHO TERMINA COM ESSE SOLO

e|--------------------------------------------------------------
B|--------------------------------------------------------------
G|--------------------------------------------------------------
D|-----------------7-7------------------------------------------   REPETE 3x
A|---7-8-7-5-5-5-5-----8-5-7------------------------------------
E|--------------------------------------------------------------

e termina com esse solinho logo em seguida do solo acima

e--------------------
B|--------------------
G|--------------------
D|--------------------
A|-----7-8-7-5--------
E|--------------------
Compositor não encontrado.
Colaboración y revisión:
  • Maurilio Amaral
  • Daniel Vergani
  • Gustavo Estevam
92 vistas
    • ½ Tono
    • A
    • Bb
    • B
    • C
    • Db
    • D
    • Eb
    • E
    • F
    • F#
    • G
    • Ab
  • Agregar a la lista

    0 comentarios

    Ver todos los comentarios

    ¿Lograste tocar?

    1 Tocaron 0 Aún no

    ¡Graba un video tocando O Homem Bomba y envíanoslo!

    00:00 / 00:00
    Outros vídeos desta música
    Repetir Calidad Automático
    Outros vídeos desta música
    00:00 / 00:00
    Automático
    OK