Cifra Club

Uma Vida Só

O Rappa

Cifrado: Principal (guitarra y guitarra eléctrica)
tono: Cm
[Intro] Cm  Gm  Fm  Cm  Gm
        Cm  Gm  Fm  Cm  Gm

[Refrão]

          Cm
Uma vida só
          Gm
Uma vida só
          Fm
Uma vida só
          Cm  Gm
Uma vida só
         
   Cm                         Gm          
E|----------------------------------------------------|
B|----------------------------------------------------|
G|-----5-7--------5-7-5-------------------------------|
D|-5-8-----8-5--8-------8-5---8-5-5---5---5-8-5-5---5-|
A|----------------------------------8-------------8---|
E|----------------------------------------------------|

   Cm                         Gm          
E|----------------------------------------------------|
B|----------------------------------------------------|
G|-----5-7--------5-7-5-------------------------------|
D|-5-8-----8-5--8-------8-5---8-5-5---5---5-8-5-5---5-|
A|----------------------------------8-------------8---|
E|----------------------------------------------------|

[Primeira Parte]
  
        Cm
Sou caixeiro, feliz, viajante
         Gm
Eu tô seguro na pista, por um triz
         Cm
Eu tô inteiro na raça

Fazendo o que eu sempre quis
 Gm
Fazendo o que eu sempre fiz
           Cm
Eu sou da ralação, iminente
           Gm
Eu sou da linha que vai do começo ao fim
              Cm                          
Sou permuta, barganha, freguês, policial 
 Gm
Médico, nunca aprendiz

[Refrão]

          Cm
Uma vida só
          Gm
Uma vida só
          Fm
Uma vida só
          Cm  Gm
Uma vida só

[Segunda Parte]

       Cm
Minha vida, minha linda feliz
          Gm
Eu tô no gancho da vida

Emoção, fantasia
       Cm                              Gm
Minha vida num conto de fadas não caberia
              Cm
Fico de cara com esse mundo
              Gm
Chapado, interesseiro

Sempre no que é bom e barato
              Cm
Fico de cara com esse mundo chapado
          Gm
Tudo de graça, sempre do que é bom e barato

[Refrão]

          Cm
Uma vida só
          Gm
Uma vida só
          Fm
Uma vida só
          Cm  Gm
Uma vida só

          Cm
Uma vida só
          Gm
Uma vida só
          Fm
Uma vida só
          Cm  Gm
Uma vida só

   Cm                         Gm          
E|----------------------------------------------------|
B|----------------------------------------------------|
G|-----5-7--------5-7-5-------------------------------|
D|-5-8-----8-5--8-------8-5---8-5-5---5---5-8-5-5---5-|
A|----------------------------------8-------------8---|
E|----------------------------------------------------|

   Cm                         Gm          
E|----------------------------------------------------|
B|----------------------------------------------------|
G|-----5-7--------5-7-5-------------------------------|
D|-5-8-----8-5--8-------8-5---8-5-5---5---5-8-5-5---5-|
A|----------------------------------8-------------8---|
E|----------------------------------------------------|

[Ponte]

 Cm
Dou um passe pro gol
 Bb                       Gm
Vento não vai desmanchar meu abrigo
 Cm
Dou um passe pro gol
 Bb                       Gm
Vento não vai desmanchar meu abrigo

 Cm                     Bb
Hoje faço o que um dia fez
             Gm
Quem veio antes de mim
 Cm                     Bb
Hoje faço o que um dia fez
             Gm
Quem veio antes de mim

[Refrão]

          Cm
Uma vida só
          Gm
Uma vida só
          Fm
Uma vida só
          Cm  Gm
Uma vida só

          Cm
Uma vida só
          Gm
Uma vida só
          Fm
Uma vida só
          Cm  Gm
Uma vida só

[Solo] Cm  Gm  Fm  Cm  Gm
       Cm  Gm  Fm  Cm  Gm
       Cm  Gm  Fm  Cm  Gm
       Cm  Gm  Fm  Cm  Gm

   Cm                         Gm          
E|----------------------------------------------------|
B|----------------------------------------------------|
G|-----5-7--------5-7-5-------------------------------|
D|-5-8-----8-5--8-------8-5---8-5-5---5---5-8-5-5---5-|
A|----------------------------------8-------------8---|
E|----------------------------------------------------|
   
   Fm                                     Cm
E|----------------------------------------------------|
B|----------------------------------------------------|
G|----------------------------------------5-5-5-------|
D|-8-5-5-----------8-5-5--------------5-8-------------|
A|-------8-8-6-8---------8-8-6-8----8-----------------|
E|----------------------------------------------------|

   Gm
E|----------------------------------------------------|
B|----------------------------------------------------|
G|----------------------------------------------------|
D|-8-5-8-5--5-5---------------------------------------|
A|----------------------------------------------------|
E|----------------------------------------------------|

   Cm                         Gm          
E|----------------------------------------------------|
B|----------------------------------------------------|
G|-----5-7--------5-7-5-------------------------------|
D|-5-8-----8-5--8-------8-5---8-5-5---5---5-8-5-5---5-|
A|----------------------------------8-------------8---|
E|----------------------------------------------------|
   
   Fm                                     Cm
E|----------------------------------------------------|
B|----------------------------------------------------|
G|----------------------------------------5-5-5-------|
D|-8-5-5-----------8-5-5--------------5-8-------------|
A|-------8-8-6-8---------8-8-6-8----8-----------------|
E|----------------------------------------------------|

   Gm
E|----------------------------------------------------|
B|----------------------------------------------------|
G|----------------------------------------------------|
D|-8-5-8-5--5-5---------------------------------------|
A|----------------------------------------------------|
E|----------------------------------------------------|

   Cm           Gm             Fm
E|----------------------------------------------------|
B|----------------------------------------------------|
G|-8-7-5-5-7-8----------------------------------------|
D|--------------8-5-8-5--5-5----6-5-3-3-5-6-----------|
A|----------------------------------------------------|
E|----------------------------------------------------|

   Cm             Gm 
E|----------------------------------------------------|
B|-3p2-3p2--------------------------------------------|
G|---------5-5----------------------------------------|
D|----------------8p5-8p5--5-5------------------------|
A|----------------------------------------------------|
E|----------------------------------------------------|

   Cm           Gm             Fm
E|----------------------------------------------------|
B|----------------------------------------------------|
G|-8-7-5-5-7-8----------------------------------------|
D|--------------8-5-8-5--5-5----6-5-3-3-5-6-----------|
A|----------------------------------------------------|
E|----------------------------------------------------|

   Cm             Gm 
E|----------------------------------------------------|
B|-3p2-3p2--------------------------------------------|
G|---------5-5----------------------------------------|
D|----------------8p5-8p5--5-5------------------------|
A|----------------------------------------------------|
E|----------------------------------------------------|

   Cm           Gm             Fm
E|----------------------------------------------------|
B|----------------------------------------------------|
G|-8-7-5-5-7-8----------------------------------------|
D|--------------8-5-8-5--5-5----6-5-3-3-5-6-----------|
A|----------------------------------------------------|
E|----------------------------------------------------|

   Cm             Gm 
E|----------------------------------------------------|
B|-3p2-3p2--------------------------------------------|
G|---------5-5----------------------------------------|
D|----------------8p5-8p5--5-5------------------------|
A|----------------------------------------------------|
E|----------------------------------------------------|

   Cm           
E|----------------------------------------------------|
B|----------------------------------------------------|
G|-8-7-5-5-7-8----------------------------------------|
D|----------------------------------------------------|
A|----------------------------------------------------|
E|----------------------------------------------------|
Composición de Marcos Lobato
Colaboración y revisión:
1.144 vistas
    • ½ Tono
    • Am
    • Bbm
    • Bm
    • Cm
    • C#m
    • Dm
    • Ebm
    • Em
    • Fm
    • F#m
    • Gm
    • G#m
  • Agregar a la lista

    0 comentarios

    Ver todos los comentarios

    ¿Lograste tocar?

    15 Tocaron 7 Aún no

    ¡Graba un video tocando Uma Vida Só y envíanoslo!

    00:00 / 00:00
    Outros vídeos desta música
    Repetir Calidad Automático
    Outros vídeos desta música
    00:00 / 00:00
    Automático
    OK