Cifra Club

Deus

O Terço

Cifrado: Principal (guitarra y guitarra eléctrica)
tono: F
Parte 1 - Repete 2 vezes.

E|------------------------------------------|
B|------------------------------------------|
G|------------------------------------------| 
D|-6--5-------------------------------------|
A|----------5--8--5-------------------------|
E|-------8----------------------------------|

E|------------------------------------------|
B|------------------------------------------|
G|------------------------------------------| 
D|-6--5-------------------------------------|
A|----------5--8--5-------------------------|
E|-------8----------------------------------|

E|------------------------------------------|
B|------------------------------------------|
G|-----------------------------------7------| 
D|-6--5--------------------11-10-----7------|
A|----------5--8--10-8-----------10--5------|
E|-------8-------------10-------------------|

Parte 2 - Repete 1 vezes.

E|------------------------------------------|
B|------------------------------------------|
G|-8--7-------------------------------------| 
D|-----------7--10--7-----------------------|
A|-------10---------------------------------|
E|------------------------------------------|

E|------------------------------------------|
B|------------------------------------------|
G|-8--7-------------------------------------| 
D|-----------7--10--7-----------------------|
A|-------10---------------------------------|
E|------------------------------------------|

E|------------------------------------------|
B|------------------------------------------|
G|-8--7----------------------------6-5------| 
D|-----------7--10--7-----5------------6----|
A|-------10-------------------8-5-----------|
E|------------------------------------------|

E|------------------------------------------|
B|------------------------------------------|
G|--7-7--9-9--10-10--12-12--14-14--17-17----| Finalzinho não tirei.
D|------------------------------------------|
A|------------------------------------------|
E|------------------------------------------|


Parte cantada:
Dm                 F
  Eu não vou mais parar
G             Dm       C
  Eu não sou, Deus
Dm                F
  Dou um passo no ar
G             Dm       C
  Onde estou, Deus
Dm            C Bb                F G
  Sigo a subir, meu caminho astral
              Dm       C
  Vou achar
Dm               C Bb             F G
  Venha me seguir, juntos descobrir
              Dm
  Nosso Deus
00:00 / 00:00
Otros videos de esta canción
Repetir
Otros videos de esta canción
Composición de César de Merces / Sérgio Hinds / Vinicius Cantuária
Colaboración y revisión:
  • Bruno Pegorari
17 vistas
    • ½ Tono
    • A
    • Bb
    • B
    • C
    • Db
    • D
    • Eb
    • E
    • F
    • F#
    • G
    • Ab
  • Agregar a la lista

    0 comentarios

    Ver todos los comentarios
    00:00 / 00:00
    OK